ISO-10303-21;
HEADER;
/* Generated by software containing ST-Developer
 * from STEP Tools, Inc. (www.steptools.com) 
 */
/* OPTION: strings as raw bytes, not using required /X/ escapes */

FILE_DESCRIPTION(
/* description */ ('Unknown'),
/* implementation_level */ '2;1');

FILE_NAME(
/* name */ 'HM223-201610',
/* time_stamp */ '2022-11-22T11:15:10+08:00',
/* author */ ('Unknown'),
/* organization */ ('Unknown'),
/* preprocessor_version */ 'ST-DEVELOPER v16.7',
/* originating_system */ 'Solid Edge',
/* authorisation */ 'Unknown');

FILE_SCHEMA (('AUTOMOTIVE_DESIGN {1 0 10303 214 3 1 1}'));
ENDSEC;

DATA;
#10=PROPERTY_DEFINITION_REPRESENTATION(#14,#12);
#11=PROPERTY_DEFINITION_REPRESENTATION(#15,#13);
#12=REPRESENTATION('',(#16),#550);
#13=REPRESENTATION('',(#17),#550);
#14=PROPERTY_DEFINITION('pmi validation property','',#555);
#15=PROPERTY_DEFINITION('pmi validation property','',#555);
#16=VALUE_REPRESENTATION_ITEM('number of annotations',COUNT_MEASURE(0.));
#17=VALUE_REPRESENTATION_ITEM('number of views',COUNT_MEASURE(0.));
#18=SHAPE_REPRESENTATION_RELATIONSHIP('','',#376,#19);
#19=ADVANCED_BREP_SHAPE_REPRESENTATION('',(#374),#550);
#20=CYLINDRICAL_SURFACE('',#396,0.08);
#21=CYLINDRICAL_SURFACE('',#397,0.08);
#22=CYLINDRICAL_SURFACE('',#398,0.08);
#23=CYLINDRICAL_SURFACE('',#399,0.08);
#24=DRAUGHTING_PRE_DEFINED_COLOUR('black');
#25=CIRCLE('',#379,0.08);
#26=CIRCLE('',#380,0.08);
#27=CIRCLE('',#386,0.08);
#28=CIRCLE('',#387,0.08);
#29=CIRCLE('',#388,0.08);
#30=CIRCLE('',#389,0.08);
#31=CIRCLE('',#391,0.08);
#32=CIRCLE('',#392,0.08);
#33=ORIENTED_EDGE('',*,*,#105,.F.);
#34=ORIENTED_EDGE('',*,*,#106,.T.);
#35=ORIENTED_EDGE('',*,*,#107,.F.);
#36=ORIENTED_EDGE('',*,*,#108,.T.);
#37=ORIENTED_EDGE('',*,*,#109,.F.);
#38=ORIENTED_EDGE('',*,*,#110,.T.);
#39=ORIENTED_EDGE('',*,*,#111,.F.);
#40=ORIENTED_EDGE('',*,*,#112,.T.);
#41=ORIENTED_EDGE('',*,*,#113,.T.);
#42=ORIENTED_EDGE('',*,*,#114,.T.);
#43=ORIENTED_EDGE('',*,*,#115,.F.);
#44=ORIENTED_EDGE('',*,*,#116,.T.);
#45=ORIENTED_EDGE('',*,*,#117,.T.);
#46=ORIENTED_EDGE('',*,*,#118,.F.);
#47=ORIENTED_EDGE('',*,*,#119,.T.);
#48=ORIENTED_EDGE('',*,*,#120,.T.);
#49=ORIENTED_EDGE('',*,*,#109,.T.);
#50=ORIENTED_EDGE('',*,*,#121,.T.);
#51=ORIENTED_EDGE('',*,*,#107,.T.);
#52=ORIENTED_EDGE('',*,*,#122,.T.);
#53=ORIENTED_EDGE('',*,*,#123,.F.);
#54=ORIENTED_EDGE('',*,*,#124,.T.);
#55=ORIENTED_EDGE('',*,*,#125,.F.);
#56=ORIENTED_EDGE('',*,*,#126,.T.);
#57=ORIENTED_EDGE('',*,*,#105,.T.);
#58=ORIENTED_EDGE('',*,*,#127,.F.);
#59=ORIENTED_EDGE('',*,*,#128,.T.);
#60=ORIENTED_EDGE('',*,*,#129,.T.);
#61=ORIENTED_EDGE('',*,*,#130,.T.);
#62=ORIENTED_EDGE('',*,*,#131,.T.);
#63=ORIENTED_EDGE('',*,*,#123,.T.);
#64=ORIENTED_EDGE('',*,*,#132,.T.);
#65=ORIENTED_EDGE('',*,*,#125,.T.);
#66=ORIENTED_EDGE('',*,*,#133,.T.);
#67=ORIENTED_EDGE('',*,*,#111,.T.);
#68=ORIENTED_EDGE('',*,*,#134,.T.);
#69=ORIENTED_EDGE('',*,*,#115,.T.);
#70=ORIENTED_EDGE('',*,*,#135,.T.);
#71=ORIENTED_EDGE('',*,*,#113,.F.);
#72=ORIENTED_EDGE('',*,*,#136,.T.);
#73=ORIENTED_EDGE('',*,*,#130,.F.);
#74=ORIENTED_EDGE('',*,*,#137,.T.);
#75=ORIENTED_EDGE('',*,*,#117,.F.);
#76=ORIENTED_EDGE('',*,*,#138,.T.);
#77=ORIENTED_EDGE('',*,*,#110,.F.);
#78=ORIENTED_EDGE('',*,*,#120,.F.);
#79=ORIENTED_EDGE('',*,*,#139,.T.);
#80=ORIENTED_EDGE('',*,*,#127,.T.);
#81=ORIENTED_EDGE('',*,*,#137,.F.);
#82=ORIENTED_EDGE('',*,*,#129,.F.);
#83=ORIENTED_EDGE('',*,*,#140,.T.);
#84=ORIENTED_EDGE('',*,*,#118,.T.);
#85=ORIENTED_EDGE('',*,*,#139,.F.);
#86=ORIENTED_EDGE('',*,*,#119,.F.);
#87=ORIENTED_EDGE('',*,*,#140,.F.);
#88=ORIENTED_EDGE('',*,*,#128,.F.);
#89=ORIENTED_EDGE('',*,*,#135,.F.);
#90=ORIENTED_EDGE('',*,*,#121,.F.);
#91=ORIENTED_EDGE('',*,*,#108,.F.);
#92=ORIENTED_EDGE('',*,*,#124,.F.);
#93=ORIENTED_EDGE('',*,*,#134,.F.);
#94=ORIENTED_EDGE('',*,*,#114,.F.);
#95=ORIENTED_EDGE('',*,*,#138,.F.);
#96=ORIENTED_EDGE('',*,*,#116,.F.);
#97=ORIENTED_EDGE('',*,*,#133,.F.);
#98=ORIENTED_EDGE('',*,*,#131,.F.);
#99=ORIENTED_EDGE('',*,*,#136,.F.);
#100=ORIENTED_EDGE('',*,*,#112,.F.);
#101=ORIENTED_EDGE('',*,*,#132,.F.);
#102=ORIENTED_EDGE('',*,*,#122,.F.);
#103=ORIENTED_EDGE('',*,*,#106,.F.);
#104=ORIENTED_EDGE('',*,*,#126,.F.);
#105=EDGE_CURVE('',#141,#142,#165,.T.);
#106=EDGE_CURVE('',#141,#143,#25,.F.);
#107=EDGE_CURVE('',#144,#143,#166,.T.);
#108=EDGE_CURVE('',#144,#145,#26,.F.);
#109=EDGE_CURVE('',#146,#145,#167,.T.);
#110=EDGE_CURVE('',#146,#142,#168,.T.);
#111=EDGE_CURVE('',#147,#148,#169,.T.);
#112=EDGE_CURVE('',#147,#149,#170,.F.);
#113=EDGE_CURVE('',#149,#150,#171,.T.);
#114=EDGE_CURVE('',#150,#148,#172,.T.);
#115=EDGE_CURVE('',#151,#152,#173,.T.);
#116=EDGE_CURVE('',#151,#153,#174,.F.);
#117=EDGE_CURVE('',#153,#154,#175,.T.);
#118=EDGE_CURVE('',#155,#154,#176,.T.);
#119=EDGE_CURVE('',#155,#156,#177,.T.);
#120=EDGE_CURVE('',#156,#146,#178,.T.);
#121=EDGE_CURVE('',#145,#152,#179,.T.);
#122=EDGE_CURVE('',#143,#157,#180,.T.);
#123=EDGE_CURVE('',#158,#157,#181,.T.);
#124=EDGE_CURVE('',#158,#144,#182,.F.);
#125=EDGE_CURVE('',#159,#160,#183,.T.);
#126=EDGE_CURVE('',#159,#141,#184,.F.);
#127=EDGE_CURVE('',#161,#142,#185,.T.);
#128=EDGE_CURVE('',#161,#162,#186,.T.);
#129=EDGE_CURVE('',#162,#163,#187,.T.);
#130=EDGE_CURVE('',#163,#164,#188,.T.);
#131=EDGE_CURVE('',#164,#160,#189,.T.);
#132=EDGE_CURVE('',#157,#159,#27,.T.);
#133=EDGE_CURVE('',#160,#147,#28,.T.);
#134=EDGE_CURVE('',#148,#151,#29,.T.);
#135=EDGE_CURVE('',#152,#158,#30,.T.);
#136=EDGE_CURVE('',#149,#164,#31,.F.);
#137=EDGE_CURVE('',#163,#154,#190,.T.);
#138=EDGE_CURVE('',#153,#150,#32,.F.);
#139=EDGE_CURVE('',#156,#161,#191,.T.);
#140=EDGE_CURVE('',#162,#155,#192,.T.);
#141=VERTEX_POINT('',#477);
#142=VERTEX_POINT('',#478);
#143=VERTEX_POINT('',#480);
#144=VERTEX_POINT('',#482);
#145=VERTEX_POINT('',#484);
#146=VERTEX_POINT('',#486);
#147=VERTEX_POINT('',#490);
#148=VERTEX_POINT('',#491);
#149=VERTEX_POINT('',#493);
#150=VERTEX_POINT('',#495);
#151=VERTEX_POINT('',#499);
#152=VERTEX_POINT('',#500);
#153=VERTEX_POINT('',#502);
#154=VERTEX_POINT('',#504);
#155=VERTEX_POINT('',#506);
#156=VERTEX_POINT('',#508);
#157=VERTEX_POINT('',#513);
#158=VERTEX_POINT('',#515);
#159=VERTEX_POINT('',#519);
#160=VERTEX_POINT('',#520);
#161=VERTEX_POINT('',#523);
#162=VERTEX_POINT('',#525);
#163=VERTEX_POINT('',#527);
#164=VERTEX_POINT('',#529);
#165=LINE('',#476,#193);
#166=LINE('',#481,#194);
#167=LINE('',#485,#195);
#168=LINE('',#487,#196);
#169=LINE('',#489,#197);
#170=LINE('',#492,#198);
#171=LINE('',#494,#199);
#172=LINE('',#496,#200);
#173=LINE('',#498,#201);
#174=LINE('',#501,#202);
#175=LINE('',#503,#203);
#176=LINE('',#505,#204);
#177=LINE('',#507,#205);
#178=LINE('',#509,#206);
#179=LINE('',#510,#207);
#180=LINE('',#512,#208);
#181=LINE('',#514,#209);
#182=LINE('',#516,#210);
#183=LINE('',#518,#211);
#184=LINE('',#521,#212);
#185=LINE('',#522,#213);
#186=LINE('',#524,#214);
#187=LINE('',#526,#215);
#188=LINE('',#528,#216);
#189=LINE('',#530,#217);
#190=LINE('',#538,#218);
#191=LINE('',#541,#219);
#192=LINE('',#543,#220);
#193=VECTOR('',#404,1000.);
#194=VECTOR('',#407,1000.);
#195=VECTOR('',#410,1000.);
#196=VECTOR('',#411,1000.);
#197=VECTOR('',#414,1000.);
#198=VECTOR('',#415,1000.);
#199=VECTOR('',#416,1000.);
#200=VECTOR('',#417,1000.);
#201=VECTOR('',#420,1000.);
#202=VECTOR('',#421,1000.);
#203=VECTOR('',#422,1000.);
#204=VECTOR('',#423,1000.);
#205=VECTOR('',#424,1000.);
#206=VECTOR('',#425,1000.);
#207=VECTOR('',#426,1000.);
#208=VECTOR('',#429,1000.);
#209=VECTOR('',#430,1000.);
#210=VECTOR('',#431,1000.);
#211=VECTOR('',#434,1000.);
#212=VECTOR('',#435,1000.);
#213=VECTOR('',#436,1000.);
#214=VECTOR('',#437,1000.);
#215=VECTOR('',#438,1000.);
#216=VECTOR('',#439,1000.);
#217=VECTOR('',#440,1000.);
#218=VECTOR('',#455,1000.);
#219=VECTOR('',#460,1000.);
#220=VECTOR('',#463,1000.);
#221=EDGE_LOOP('',(#33,#34,#35,#36,#37,#38));
#222=EDGE_LOOP('',(#39,#40,#41,#42));
#223=EDGE_LOOP('',(#43,#44,#45,#46,#47,#48,#49,#50));
#224=EDGE_LOOP('',(#51,#52,#53,#54));
#225=EDGE_LOOP('',(#55,#56,#57,#58,#59,#60,#61,#62));
#226=EDGE_LOOP('',(#63,#64,#65,#66,#67,#68,#69,#70));
#227=EDGE_LOOP('',(#71,#72,#73,#74,#75,#76));
#228=EDGE_LOOP('',(#77,#78,#79,#80));
#229=EDGE_LOOP('',(#81,#82,#83,#84));
#230=EDGE_LOOP('',(#85,#86,#87,#88));
#231=EDGE_LOOP('',(#89,#90,#91,#92));
#232=EDGE_LOOP('',(#93,#94,#95,#96));
#233=EDGE_LOOP('',(#97,#98,#99,#100));
#234=EDGE_LOOP('',(#101,#102,#103,#104));
#235=FACE_BOUND('',#221,.T.);
#236=FACE_BOUND('',#222,.T.);
#237=FACE_BOUND('',#223,.T.);
#238=FACE_BOUND('',#224,.T.);
#239=FACE_BOUND('',#225,.T.);
#240=FACE_BOUND('',#226,.T.);
#241=FACE_BOUND('',#227,.T.);
#242=FACE_BOUND('',#228,.T.);
#243=FACE_BOUND('',#229,.T.);
#244=FACE_BOUND('',#230,.T.);
#245=FACE_BOUND('',#231,.T.);
#246=FACE_BOUND('',#232,.T.);
#247=FACE_BOUND('',#233,.T.);
#248=FACE_BOUND('',#234,.T.);
#249=PLANE('',#378);
#250=PLANE('',#381);
#251=PLANE('',#382);
#252=PLANE('',#383);
#253=PLANE('',#384);
#254=PLANE('',#385);
#255=PLANE('',#390);
#256=PLANE('',#393);
#257=PLANE('',#394);
#258=PLANE('',#395);
#259=STYLED_ITEM('',(#273),#359);
#260=STYLED_ITEM('',(#274),#360);
#261=STYLED_ITEM('',(#275),#361);
#262=STYLED_ITEM('',(#276),#362);
#263=STYLED_ITEM('',(#277),#363);
#264=STYLED_ITEM('',(#278),#364);
#265=STYLED_ITEM('',(#279),#365);
#266=STYLED_ITEM('',(#280),#366);
#267=STYLED_ITEM('',(#281),#367);
#268=STYLED_ITEM('',(#282),#368);
#269=STYLED_ITEM('',(#283),#369);
#270=STYLED_ITEM('',(#284),#370);
#271=STYLED_ITEM('',(#285),#371);
#272=STYLED_ITEM('',(#286),#372);
#273=PRESENTATION_STYLE_ASSIGNMENT((#287));
#274=PRESENTATION_STYLE_ASSIGNMENT((#288));
#275=PRESENTATION_STYLE_ASSIGNMENT((#289));
#276=PRESENTATION_STYLE_ASSIGNMENT((#290));
#277=PRESENTATION_STYLE_ASSIGNMENT((#291));
#278=PRESENTATION_STYLE_ASSIGNMENT((#292));
#279=PRESENTATION_STYLE_ASSIGNMENT((#293));
#280=PRESENTATION_STYLE_ASSIGNMENT((#294));
#281=PRESENTATION_STYLE_ASSIGNMENT((#295));
#282=PRESENTATION_STYLE_ASSIGNMENT((#296));
#283=PRESENTATION_STYLE_ASSIGNMENT((#297));
#284=PRESENTATION_STYLE_ASSIGNMENT((#298));
#285=PRESENTATION_STYLE_ASSIGNMENT((#299));
#286=PRESENTATION_STYLE_ASSIGNMENT((#300));
#287=SURFACE_STYLE_USAGE(.BOTH.,#301);
#288=SURFACE_STYLE_USAGE(.BOTH.,#302);
#289=SURFACE_STYLE_USAGE(.BOTH.,#303);
#290=SURFACE_STYLE_USAGE(.BOTH.,#304);
#291=SURFACE_STYLE_USAGE(.BOTH.,#305);
#292=SURFACE_STYLE_USAGE(.BOTH.,#306);
#293=SURFACE_STYLE_USAGE(.BOTH.,#307);
#294=SURFACE_STYLE_USAGE(.BOTH.,#308);
#295=SURFACE_STYLE_USAGE(.BOTH.,#309);
#296=SURFACE_STYLE_USAGE(.BOTH.,#310);
#297=SURFACE_STYLE_USAGE(.BOTH.,#311);
#298=SURFACE_STYLE_USAGE(.BOTH.,#312);
#299=SURFACE_STYLE_USAGE(.BOTH.,#313);
#300=SURFACE_STYLE_USAGE(.BOTH.,#314);
#301=SURFACE_SIDE_STYLE('',(#315));
#302=SURFACE_SIDE_STYLE('',(#316));
#303=SURFACE_SIDE_STYLE('',(#317));
#304=SURFACE_SIDE_STYLE('',(#318));
#305=SURFACE_SIDE_STYLE('',(#319));
#306=SURFACE_SIDE_STYLE('',(#320));
#307=SURFACE_SIDE_STYLE('',(#321));
#308=SURFACE_SIDE_STYLE('',(#322));
#309=SURFACE_SIDE_STYLE('',(#323));
#310=SURFACE_SIDE_STYLE('',(#324));
#311=SURFACE_SIDE_STYLE('',(#325));
#312=SURFACE_SIDE_STYLE('',(#326));
#313=SURFACE_SIDE_STYLE('',(#327));
#314=SURFACE_SIDE_STYLE('',(#328));
#315=SURFACE_STYLE_FILL_AREA(#329);
#316=SURFACE_STYLE_FILL_AREA(#330);
#317=SURFACE_STYLE_FILL_AREA(#331);
#318=SURFACE_STYLE_FILL_AREA(#332);
#319=SURFACE_STYLE_FILL_AREA(#333);
#320=SURFACE_STYLE_FILL_AREA(#334);
#321=SURFACE_STYLE_FILL_AREA(#335);
#322=SURFACE_STYLE_FILL_AREA(#336);
#323=SURFACE_STYLE_FILL_AREA(#337);
#324=SURFACE_STYLE_FILL_AREA(#338);
#325=SURFACE_STYLE_FILL_AREA(#339);
#326=SURFACE_STYLE_FILL_AREA(#340);
#327=SURFACE_STYLE_FILL_AREA(#341);
#328=SURFACE_STYLE_FILL_AREA(#342);
#329=FILL_AREA_STYLE('',(#343));
#330=FILL_AREA_STYLE('',(#344));
#331=FILL_AREA_STYLE('',(#345));
#332=FILL_AREA_STYLE('',(#346));
#333=FILL_AREA_STYLE('',(#347));
#334=FILL_AREA_STYLE('',(#348));
#335=FILL_AREA_STYLE('',(#349));
#336=FILL_AREA_STYLE('',(#350));
#337=FILL_AREA_STYLE('',(#351));
#338=FILL_AREA_STYLE('',(#352));
#339=FILL_AREA_STYLE('',(#353));
#340=FILL_AREA_STYLE('',(#354));
#341=FILL_AREA_STYLE('',(#355));
#342=FILL_AREA_STYLE('',(#356));
#343=FILL_AREA_STYLE_COLOUR('',#357);
#344=FILL_AREA_STYLE_COLOUR('',#24);
#345=FILL_AREA_STYLE_COLOUR('',#24);
#346=FILL_AREA_STYLE_COLOUR('',#24);
#347=FILL_AREA_STYLE_COLOUR('',#24);
#348=FILL_AREA_STYLE_COLOUR('',#24);
#349=FILL_AREA_STYLE_COLOUR('',#357);
#350=FILL_AREA_STYLE_COLOUR('',#358);
#351=FILL_AREA_STYLE_COLOUR('',#358);
#352=FILL_AREA_STYLE_COLOUR('',#24);
#353=FILL_AREA_STYLE_COLOUR('',#24);
#354=FILL_AREA_STYLE_COLOUR('',#24);
#355=FILL_AREA_STYLE_COLOUR('',#24);
#356=FILL_AREA_STYLE_COLOUR('',#24);
#357=COLOUR_RGB('',0.699999988079071,0.699999988079071,0.699999988079071);
#358=COLOUR_RGB('',0.506983280181885,0.531564235687256,0.550000011920929);
#359=ADVANCED_FACE('',(#235),#249,.F.);
#360=ADVANCED_FACE('',(#236),#250,.F.);
#361=ADVANCED_FACE('',(#237),#251,.F.);
#362=ADVANCED_FACE('',(#238),#252,.F.);
#363=ADVANCED_FACE('',(#239),#253,.F.);
#364=ADVANCED_FACE('',(#240),#254,.T.);
#365=ADVANCED_FACE('',(#241),#255,.F.);
#366=ADVANCED_FACE('',(#242),#256,.T.);
#367=ADVANCED_FACE('',(#243),#257,.T.);
#368=ADVANCED_FACE('',(#244),#258,.F.);
#369=ADVANCED_FACE('',(#245),#20,.T.);
#370=ADVANCED_FACE('',(#246),#21,.T.);
#371=ADVANCED_FACE('',(#247),#22,.T.);
#372=ADVANCED_FACE('',(#248),#23,.T.);
#373=CLOSED_SHELL('',(#359,#360,#361,#362,#363,#364,#365,#366,#367,#368,
#369,#370,#371,#372));
#374=MANIFOLD_SOLID_BREP('',#373);
#375=SHAPE_DEFINITION_REPRESENTATION(#555,#376);
#376=SHAPE_REPRESENTATION('HM223-201610',(#377),#550);
#377=AXIS2_PLACEMENT_3D('',#474,#400,#401);
#378=AXIS2_PLACEMENT_3D('',#475,#402,#403);
#379=AXIS2_PLACEMENT_3D('',#479,#405,#406);
#380=AXIS2_PLACEMENT_3D('',#483,#408,#409);
#381=AXIS2_PLACEMENT_3D('',#488,#412,#413);
#382=AXIS2_PLACEMENT_3D('',#497,#418,#419);
#383=AXIS2_PLACEMENT_3D('',#511,#427,#428);
#384=AXIS2_PLACEMENT_3D('',#517,#432,#433);
#385=AXIS2_PLACEMENT_3D('',#531,#441,#442);
#386=AXIS2_PLACEMENT_3D('',#532,#443,#444);
#387=AXIS2_PLACEMENT_3D('',#533,#445,#446);
#388=AXIS2_PLACEMENT_3D('',#534,#447,#448);
#389=AXIS2_PLACEMENT_3D('',#535,#449,#450);
#390=AXIS2_PLACEMENT_3D('',#536,#451,#452);
#391=AXIS2_PLACEMENT_3D('',#537,#453,#454);
#392=AXIS2_PLACEMENT_3D('',#539,#456,#457);
#393=AXIS2_PLACEMENT_3D('',#540,#458,#459);
#394=AXIS2_PLACEMENT_3D('',#542,#461,#462);
#395=AXIS2_PLACEMENT_3D('',#544,#464,#465);
#396=AXIS2_PLACEMENT_3D('',#545,#466,#467);
#397=AXIS2_PLACEMENT_3D('',#546,#468,#469);
#398=AXIS2_PLACEMENT_3D('',#547,#470,#471);
#399=AXIS2_PLACEMENT_3D('',#548,#472,#473);
#400=DIRECTION('',(0.,0.,1.));
#401=DIRECTION('',(1.,0.,0.));
#402=DIRECTION('',(0.,0.,1.));
#403=DIRECTION('',(1.,0.,0.));
#404=DIRECTION('',(0.,-1.,0.));
#405=DIRECTION('',(0.,0.,1.));
#406=DIRECTION('',(1.,0.,0.));
#407=DIRECTION('',(-1.,0.,0.));
#408=DIRECTION('',(0.,0.,1.));
#409=DIRECTION('',(1.,0.,0.));
#410=DIRECTION('',(0.,1.,0.));
#411=DIRECTION('',(-1.,0.,0.));
#412=DIRECTION('',(0.,1.,0.));
#413=DIRECTION('',(0.,0.,1.));
#414=DIRECTION('',(1.,0.,0.));
#415=DIRECTION('',(0.,0.,1.));
#416=DIRECTION('',(1.,0.,0.));
#417=DIRECTION('',(0.,0.,1.));
#418=DIRECTION('',(-1.,0.,0.));
#419=DIRECTION('',(0.,0.,1.));
#420=DIRECTION('',(0.,1.,0.));
#421=DIRECTION('',(0.,0.,1.));
#422=DIRECTION('',(0.,1.,0.));
#423=DIRECTION('',(0.,0.,-1.));
#424=DIRECTION('',(2.16840434497101E-16,1.,0.));
#425=DIRECTION('',(0.,0.,-1.));
#426=DIRECTION('',(0.,0.,1.));
#427=DIRECTION('',(0.,-1.,0.));
#428=DIRECTION('',(0.,0.,-1.));
#429=DIRECTION('',(0.,0.,1.));
#430=DIRECTION('',(-1.,0.,0.));
#431=DIRECTION('',(0.,0.,1.));
#432=DIRECTION('',(1.,0.,0.));
#433=DIRECTION('',(0.,0.,-1.));
#434=DIRECTION('',(0.,-1.,0.));
#435=DIRECTION('',(0.,0.,1.));
#436=DIRECTION('',(0.,0.,-1.));
#437=DIRECTION('',(-2.16840434497101E-16,-1.,0.));
#438=DIRECTION('',(0.,0.,-1.));
#439=DIRECTION('',(0.,-1.,0.));
#440=DIRECTION('',(0.,0.,1.));
#441=DIRECTION('',(0.,0.,1.));
#442=DIRECTION('',(1.,0.,0.));
#443=DIRECTION('',(0.,0.,1.));
#444=DIRECTION('',(1.,0.,0.));
#445=DIRECTION('',(0.,0.,1.));
#446=DIRECTION('',(1.,0.,0.));
#447=DIRECTION('',(0.,0.,1.));
#448=DIRECTION('',(1.,0.,0.));
#449=DIRECTION('',(0.,0.,1.));
#450=DIRECTION('',(1.,0.,0.));
#451=DIRECTION('',(0.,0.,1.));
#452=DIRECTION('',(1.,0.,0.));
#453=DIRECTION('',(0.,0.,1.));
#454=DIRECTION('',(1.,0.,0.));
#455=DIRECTION('',(1.,1.35525271560688E-16,0.));
#456=DIRECTION('',(0.,0.,1.));
#457=DIRECTION('',(1.,0.,0.));
#458=DIRECTION('',(0.,-1.,0.));
#459=DIRECTION('',(0.,0.,-1.));
#460=DIRECTION('',(-1.,0.,0.));
#461=DIRECTION('',(-1.35525271560688E-16,1.,0.));
#462=DIRECTION('',(-1.,-1.35525271560688E-16,0.));
#463=DIRECTION('',(1.,1.35525271560688E-16,0.));
#464=DIRECTION('',(0.,0.,1.));
#465=DIRECTION('',(1.,0.,0.));
#466=DIRECTION('',(0.,0.,1.));
#467=DIRECTION('',(1.,0.,0.));
#468=DIRECTION('',(0.,0.,1.));
#469=DIRECTION('',(1.,0.,0.));
#470=DIRECTION('',(0.,0.,1.));
#471=DIRECTION('',(1.,0.,0.));
#472=DIRECTION('',(0.,0.,1.));
#473=DIRECTION('',(1.,0.,0.));
#474=CARTESIAN_POINT('',(0.,0.,0.));
#475=CARTESIAN_POINT('',(0.,0.,-0.3));
#476=CARTESIAN_POINT('',(-0.8,0.7,-0.3));
#477=CARTESIAN_POINT('',(-0.8,0.92,-0.3));
#478=CARTESIAN_POINT('',(-0.8,0.3,-0.3));
#479=CARTESIAN_POINT('',(-0.72,0.92,-0.3));
#480=CARTESIAN_POINT('',(-0.72,1.,-0.3));
#481=CARTESIAN_POINT('',(0.6,1.,-0.3));
#482=CARTESIAN_POINT('',(0.72,1.,-0.3));
#483=CARTESIAN_POINT('',(0.72,0.92,-0.3));
#484=CARTESIAN_POINT('',(0.8,0.92,-0.3));
#485=CARTESIAN_POINT('',(0.8,-0.7,-0.3));
#486=CARTESIAN_POINT('',(0.8,0.3,-0.3));
#487=CARTESIAN_POINT('',(0.6,0.3,-0.3));
#488=CARTESIAN_POINT('',(-0.6,-1.,0.7));
#489=CARTESIAN_POINT('',(-0.6,-1.,0.7));
#490=CARTESIAN_POINT('',(-0.72,-1.,0.7));
#491=CARTESIAN_POINT('',(0.72,-1.,0.7));
#492=CARTESIAN_POINT('',(-0.72,-1.,0.7));
#493=CARTESIAN_POINT('',(-0.72,-1.,-0.3));
#494=CARTESIAN_POINT('',(-0.6,-1.,-0.3));
#495=CARTESIAN_POINT('',(0.72,-1.,-0.3));
#496=CARTESIAN_POINT('',(0.72,-1.,0.7));
#497=CARTESIAN_POINT('',(0.8,-0.7,0.7));
#498=CARTESIAN_POINT('',(0.8,-0.7,0.7));
#499=CARTESIAN_POINT('',(0.8,-0.92,0.7));
#500=CARTESIAN_POINT('',(0.8,0.92,0.7));
#501=CARTESIAN_POINT('',(0.8,-0.92,0.7));
#502=CARTESIAN_POINT('',(0.8,-0.92,-0.3));
#503=CARTESIAN_POINT('',(0.8,-0.7,-0.3));
#504=CARTESIAN_POINT('',(0.8,-0.3,-0.3));
#505=CARTESIAN_POINT('',(0.8,-0.3,-0.08));
#506=CARTESIAN_POINT('',(0.8,-0.3,-0.28));
#507=CARTESIAN_POINT('',(0.8,-0.25,-0.28));
#508=CARTESIAN_POINT('',(0.8,0.3,-0.28));
#509=CARTESIAN_POINT('',(0.8,0.3,-0.08));
#510=CARTESIAN_POINT('',(0.8,0.92,0.7));
#511=CARTESIAN_POINT('',(0.6,1.,0.7));
#512=CARTESIAN_POINT('',(-0.72,1.,0.7));
#513=CARTESIAN_POINT('',(-0.72,1.,0.7));
#514=CARTESIAN_POINT('',(0.6,1.,0.7));
#515=CARTESIAN_POINT('',(0.72,1.,0.7));
#516=CARTESIAN_POINT('',(0.72,1.,0.7));
#517=CARTESIAN_POINT('',(-0.8,0.7,0.7));
#518=CARTESIAN_POINT('',(-0.8,0.7,0.7));
#519=CARTESIAN_POINT('',(-0.8,0.92,0.7));
#520=CARTESIAN_POINT('',(-0.8,-0.92,0.7));
#521=CARTESIAN_POINT('',(-0.8,0.92,0.7));
#522=CARTESIAN_POINT('',(-0.8,0.3,-0.08));
#523=CARTESIAN_POINT('',(-0.8,0.3,-0.28));
#524=CARTESIAN_POINT('',(-0.8,0.25,-0.28));
#525=CARTESIAN_POINT('',(-0.8,-0.3,-0.28));
#526=CARTESIAN_POINT('',(-0.8,-0.3,-0.08));
#527=CARTESIAN_POINT('',(-0.8,-0.3,-0.3));
#528=CARTESIAN_POINT('',(-0.8,0.7,-0.3));
#529=CARTESIAN_POINT('',(-0.8,-0.92,-0.3));
#530=CARTESIAN_POINT('',(-0.8,-0.92,0.7));
#531=CARTESIAN_POINT('',(0.,0.,0.7));
#532=CARTESIAN_POINT('',(-0.72,0.92,0.7));
#533=CARTESIAN_POINT('',(-0.72,-0.92,0.7));
#534=CARTESIAN_POINT('',(0.72,-0.92,0.7));
#535=CARTESIAN_POINT('',(0.72,0.92,0.7));
#536=CARTESIAN_POINT('',(0.,0.,-0.3));
#537=CARTESIAN_POINT('',(-0.72,-0.92,-0.3));
#538=CARTESIAN_POINT('',(-0.6,-0.3,-0.3));
#539=CARTESIAN_POINT('',(0.72,-0.92,-0.3));
#540=CARTESIAN_POINT('',(0.6,0.3,-0.08));
#541=CARTESIAN_POINT('',(0.6,0.3,-0.28));
#542=CARTESIAN_POINT('',(-0.6,-0.3,-0.08));
#543=CARTESIAN_POINT('',(-0.6,-0.3,-0.28));
#544=CARTESIAN_POINT('',(0.,0.,-0.28));
#545=CARTESIAN_POINT('',(0.72,0.92,0.7));
#546=CARTESIAN_POINT('',(0.72,-0.92,0.7));
#547=CARTESIAN_POINT('',(-0.72,-0.92,0.7));
#548=CARTESIAN_POINT('',(-0.72,0.92,0.7));
#549=MECHANICAL_DESIGN_GEOMETRIC_PRESENTATION_REPRESENTATION('',(#259,#260,
#261,#262,#263,#264,#265,#266,#267,#268,#269,#270,#271,#272),#550);
#550=(
GEOMETRIC_REPRESENTATION_CONTEXT(3)
GLOBAL_UNCERTAINTY_ASSIGNED_CONTEXT((#551))
GLOBAL_UNIT_ASSIGNED_CONTEXT((#554,#553,#552))
REPRESENTATION_CONTEXT('HM223-201610','TOP_LEVEL_ASSEMBLY_PART')
);
#551=UNCERTAINTY_MEASURE_WITH_UNIT(LENGTH_MEASURE(0.005),#554,
'DISTANCE_ACCURACY_VALUE','Maximum Tolerance applied to model');
#552=(
NAMED_UNIT(*)
SI_UNIT($,.STERADIAN.)
SOLID_ANGLE_UNIT()
);
#553=(
NAMED_UNIT(*)
PLANE_ANGLE_UNIT()
SI_UNIT($,.RADIAN.)
);
#554=(
LENGTH_UNIT()
NAMED_UNIT(*)
SI_UNIT(.MILLI.,.METRE.)
);
#555=PRODUCT_DEFINITION_SHAPE('','',#556);
#556=PRODUCT_DEFINITION('','',#558,#557);
#557=PRODUCT_DEFINITION_CONTEXT('',#564,'design');
#558=PRODUCT_DEFINITION_FORMATION_WITH_SPECIFIED_SOURCE('','',#560,
 .NOT_KNOWN.);
#559=PRODUCT_RELATED_PRODUCT_CATEGORY('','',(#560));
#560=PRODUCT('HM223-201610','HM223-201610','HM223-201610',(#562));
#561=PRODUCT_CATEGORY('','');
#562=PRODUCT_CONTEXT('',#564,'mechanical');
#563=APPLICATION_PROTOCOL_DEFINITION('international standard',
'automotive_design',2010,#564);
#564=APPLICATION_CONTEXT(
'core data for automotive mechanical design processes');
ENDSEC;
END-ISO-10303-21;
