ISO-10303-21;
HEADER;
/* Generated by software containing ST-Developer
 * from STEP Tools, Inc. (www.steptools.com) 
 */

FILE_DESCRIPTION(
/* description */ (''),
/* implementation_level */ '2;1');

FILE_NAME(
/* name */ 
'C:\\Users\\avery.harrell\\Documents\\Inventor\\Welwyn WW\\WHS7U-xyT07
 wo tape.stp',
/* time_stamp */ '2023-08-01T10:01:06-04:00',
/* author */ ('avery.harrell'),
/* organization */ (''),
/* preprocessor_version */ 'ST-DEVELOPER v17.2',
/* originating_system */ 'Autodesk Inventor 2019',
/* authorisation */ '');

FILE_SCHEMA (('AUTOMOTIVE_DESIGN { 1 0 10303 214 3 1 1 }'));
ENDSEC;

DATA;
#10=MECHANICAL_DESIGN_GEOMETRIC_PRESENTATION_REPRESENTATION('',(#29,#30,
#31),#601);
#11=ITEM_DEFINED_TRANSFORMATION($,$,#343,#393);
#12=ITEM_DEFINED_TRANSFORMATION($,$,#381,#394);
#13=ITEM_DEFINED_TRANSFORMATION($,$,#387,#395);
#14=(
REPRESENTATION_RELATIONSHIP($,$,#618,#617)
REPRESENTATION_RELATIONSHIP_WITH_TRANSFORMATION(#11)
SHAPE_REPRESENTATION_RELATIONSHIP()
);
#15=(
REPRESENTATION_RELATIONSHIP($,$,#619,#617)
REPRESENTATION_RELATIONSHIP_WITH_TRANSFORMATION(#12)
SHAPE_REPRESENTATION_RELATIONSHIP()
);
#16=(
REPRESENTATION_RELATIONSHIP($,$,#620,#617)
REPRESENTATION_RELATIONSHIP_WITH_TRANSFORMATION(#13)
SHAPE_REPRESENTATION_RELATIONSHIP()
);
#17=CONTEXT_DEPENDENT_SHAPE_REPRESENTATION(#14,#614);
#18=CONTEXT_DEPENDENT_SHAPE_REPRESENTATION(#15,#615);
#19=CONTEXT_DEPENDENT_SHAPE_REPRESENTATION(#16,#616);
#20=NEXT_ASSEMBLY_USAGE_OCCURRENCE('WHS7 body:1','WHS7 body:1',
'WHS7 body:1',#622,#623,'WHS7 body:1');
#21=NEXT_ASSEMBLY_USAGE_OCCURRENCE('WHS7U lead 1:1','WHS7U lead 1:1',
'WHS7U lead 1:1',#622,#624,'WHS7U lead 1:1');
#22=NEXT_ASSEMBLY_USAGE_OCCURRENCE('WHS7U lead 2:1','WHS7U lead 2:1',
'WHS7U lead 2:1',#622,#625,'WHS7U lead 2:1');
#23=SHAPE_REPRESENTATION_RELATIONSHIP('SRR','None',#618,#26);
#24=SHAPE_REPRESENTATION_RELATIONSHIP('SRR','None',#619,#27);
#25=SHAPE_REPRESENTATION_RELATIONSHIP('SRR','None',#620,#28);
#26=ADVANCED_BREP_SHAPE_REPRESENTATION('',(#32),#598);
#27=ADVANCED_BREP_SHAPE_REPRESENTATION('',(#33),#599);
#28=ADVANCED_BREP_SHAPE_REPRESENTATION('',(#34),#600);
#29=STYLED_ITEM('',(#309),#32);
#30=STYLED_ITEM('',(#309),#33);
#31=STYLED_ITEM('',(#309),#34);
#32=MANIFOLD_SOLID_BREP('Solid1',#272);
#33=MANIFOLD_SOLID_BREP('Solid1',#273);
#34=MANIFOLD_SOLID_BREP('Solid1',#274);
#35=PLANE('',#375);
#36=PLANE('',#380);
#37=PLANE('',#385);
#38=PLANE('',#386);
#39=PLANE('',#391);
#40=PLANE('',#392);
#41=LINE('',#525,#46);
#42=LINE('',#535,#47);
#43=LINE('',#555,#48);
#44=LINE('',#576,#49);
#45=LINE('',#585,#50);
#46=VECTOR('',#416,4.4);
#47=VECTOR('',#429,4.1);
#48=VECTOR('',#454,4.4);
#49=VECTOR('',#483,0.4);
#50=VECTOR('',#496,0.4);
#51=CYLINDRICAL_SURFACE('',#350,4.4);
#52=CYLINDRICAL_SURFACE('',#357,4.1);
#53=CYLINDRICAL_SURFACE('',#368,4.4);
#54=CYLINDRICAL_SURFACE('',#382,0.4);
#55=CYLINDRICAL_SURFACE('',#388,0.4);
#56=FACE_OUTER_BOUND('',#73,.T.);
#57=FACE_OUTER_BOUND('',#74,.T.);
#58=FACE_OUTER_BOUND('',#75,.T.);
#59=FACE_OUTER_BOUND('',#76,.T.);
#60=FACE_OUTER_BOUND('',#77,.T.);
#61=FACE_OUTER_BOUND('',#78,.T.);
#62=FACE_OUTER_BOUND('',#79,.T.);
#63=FACE_OUTER_BOUND('',#80,.T.);
#64=FACE_OUTER_BOUND('',#81,.T.);
#65=FACE_OUTER_BOUND('',#82,.T.);
#66=FACE_OUTER_BOUND('',#83,.T.);
#67=FACE_OUTER_BOUND('',#84,.T.);
#68=FACE_OUTER_BOUND('',#85,.T.);
#69=FACE_OUTER_BOUND('',#86,.T.);
#70=FACE_OUTER_BOUND('',#87,.T.);
#71=FACE_OUTER_BOUND('',#88,.T.);
#72=FACE_OUTER_BOUND('',#89,.T.);
#73=EDGE_LOOP('',(#179,#180,#181,#182,#183,#184));
#74=EDGE_LOOP('',(#185,#186,#187,#188,#189,#190));
#75=EDGE_LOOP('',(#191,#192,#193,#194,#195,#196));
#76=EDGE_LOOP('',(#197,#198,#199,#200,#201,#202));
#77=EDGE_LOOP('',(#203,#204,#205,#206,#207,#208));
#78=EDGE_LOOP('',(#209,#210,#211,#212,#213,#214));
#79=EDGE_LOOP('',(#215,#216,#217,#218,#219,#220));
#80=EDGE_LOOP('',(#221,#222,#223,#224,#225,#226));
#81=EDGE_LOOP('',(#227,#228));
#82=EDGE_LOOP('',(#229,#230,#231,#232,#233,#234));
#83=EDGE_LOOP('',(#235,#236));
#84=EDGE_LOOP('',(#237,#238,#239,#240));
#85=EDGE_LOOP('',(#241));
#86=EDGE_LOOP('',(#242));
#87=EDGE_LOOP('',(#243,#244,#245,#246));
#88=EDGE_LOOP('',(#247));
#89=EDGE_LOOP('',(#248));
#90=CIRCLE('',#345,4.25);
#91=CIRCLE('',#346,0.7);
#92=CIRCLE('',#347,4.4);
#93=CIRCLE('',#348,4.4);
#94=CIRCLE('',#349,4.25);
#95=CIRCLE('',#351,4.4);
#96=CIRCLE('',#352,4.4);
#97=CIRCLE('',#354,4.1);
#98=CIRCLE('',#355,4.1);
#99=CIRCLE('',#356,0.7);
#100=CIRCLE('',#358,4.1);
#101=CIRCLE('',#359,4.1);
#102=CIRCLE('',#361,0.7);
#103=CIRCLE('',#362,4.25);
#104=CIRCLE('',#363,4.25);
#105=CIRCLE('',#365,4.4);
#106=CIRCLE('',#366,4.4);
#107=CIRCLE('',#367,0.7);
#108=CIRCLE('',#369,4.4);
#109=CIRCLE('',#370,4.4);
#110=CIRCLE('',#372,0.7);
#111=CIRCLE('',#373,3.7);
#112=CIRCLE('',#374,3.7);
#113=CIRCLE('',#377,3.7);
#114=CIRCLE('',#378,0.7);
#115=CIRCLE('',#379,3.7);
#116=CIRCLE('',#383,0.4);
#117=CIRCLE('',#384,0.4);
#118=CIRCLE('',#389,0.4);
#119=CIRCLE('',#390,0.4);
#120=VERTEX_POINT('',#512);
#121=VERTEX_POINT('',#513);
#122=VERTEX_POINT('',#515);
#123=VERTEX_POINT('',#517);
#124=VERTEX_POINT('',#522);
#125=VERTEX_POINT('',#523);
#126=VERTEX_POINT('',#528);
#127=VERTEX_POINT('',#529);
#128=VERTEX_POINT('',#534);
#129=VERTEX_POINT('',#536);
#130=VERTEX_POINT('',#540);
#131=VERTEX_POINT('',#542);
#132=VERTEX_POINT('',#546);
#133=VERTEX_POINT('',#547);
#134=VERTEX_POINT('',#552);
#135=VERTEX_POINT('',#553);
#136=VERTEX_POINT('',#558);
#137=VERTEX_POINT('',#560);
#138=VERTEX_POINT('',#565);
#139=VERTEX_POINT('',#566);
#140=VERTEX_POINT('',#573);
#141=VERTEX_POINT('',#575);
#142=VERTEX_POINT('',#582);
#143=VERTEX_POINT('',#584);
#144=EDGE_CURVE('',#120,#121,#90,.T.);
#145=EDGE_CURVE('',#121,#122,#91,.T.);
#146=EDGE_CURVE('',#122,#123,#92,.T.);
#147=EDGE_CURVE('',#123,#122,#93,.T.);
#148=EDGE_CURVE('',#121,#120,#94,.T.);
#149=EDGE_CURVE('',#124,#125,#95,.T.);
#150=EDGE_CURVE('',#124,#122,#41,.T.);
#151=EDGE_CURVE('',#125,#124,#96,.T.);
#152=EDGE_CURVE('',#126,#127,#97,.T.);
#153=EDGE_CURVE('',#127,#126,#98,.T.);
#154=EDGE_CURVE('',#126,#120,#99,.T.);
#155=EDGE_CURVE('',#127,#128,#42,.T.);
#156=EDGE_CURVE('',#129,#128,#100,.T.);
#157=EDGE_CURVE('',#128,#129,#101,.T.);
#158=EDGE_CURVE('',#128,#130,#102,.T.);
#159=EDGE_CURVE('',#130,#131,#103,.T.);
#160=EDGE_CURVE('',#131,#130,#104,.T.);
#161=EDGE_CURVE('',#132,#133,#105,.T.);
#162=EDGE_CURVE('',#133,#132,#106,.T.);
#163=EDGE_CURVE('',#132,#131,#107,.T.);
#164=EDGE_CURVE('',#134,#135,#108,.T.);
#165=EDGE_CURVE('',#134,#133,#43,.T.);
#166=EDGE_CURVE('',#135,#134,#109,.T.);
#167=EDGE_CURVE('',#135,#136,#110,.T.);
#168=EDGE_CURVE('',#136,#137,#111,.T.);
#169=EDGE_CURVE('',#137,#136,#112,.T.);
#170=EDGE_CURVE('',#138,#139,#113,.T.);
#171=EDGE_CURVE('',#139,#125,#114,.T.);
#172=EDGE_CURVE('',#139,#138,#115,.T.);
#173=EDGE_CURVE('',#140,#140,#116,.T.);
#174=EDGE_CURVE('',#140,#141,#44,.T.);
#175=EDGE_CURVE('',#141,#141,#117,.T.);
#176=EDGE_CURVE('',#142,#142,#118,.T.);
#177=EDGE_CURVE('',#142,#143,#45,.T.);
#178=EDGE_CURVE('',#143,#143,#119,.T.);
#179=ORIENTED_EDGE('',*,*,#144,.T.);
#180=ORIENTED_EDGE('',*,*,#145,.T.);
#181=ORIENTED_EDGE('',*,*,#146,.T.);
#182=ORIENTED_EDGE('',*,*,#147,.T.);
#183=ORIENTED_EDGE('',*,*,#145,.F.);
#184=ORIENTED_EDGE('',*,*,#148,.T.);
#185=ORIENTED_EDGE('',*,*,#149,.F.);
#186=ORIENTED_EDGE('',*,*,#150,.T.);
#187=ORIENTED_EDGE('',*,*,#147,.F.);
#188=ORIENTED_EDGE('',*,*,#146,.F.);
#189=ORIENTED_EDGE('',*,*,#150,.F.);
#190=ORIENTED_EDGE('',*,*,#151,.F.);
#191=ORIENTED_EDGE('',*,*,#152,.T.);
#192=ORIENTED_EDGE('',*,*,#153,.T.);
#193=ORIENTED_EDGE('',*,*,#154,.T.);
#194=ORIENTED_EDGE('',*,*,#148,.F.);
#195=ORIENTED_EDGE('',*,*,#144,.F.);
#196=ORIENTED_EDGE('',*,*,#154,.F.);
#197=ORIENTED_EDGE('',*,*,#152,.F.);
#198=ORIENTED_EDGE('',*,*,#153,.F.);
#199=ORIENTED_EDGE('',*,*,#155,.T.);
#200=ORIENTED_EDGE('',*,*,#156,.F.);
#201=ORIENTED_EDGE('',*,*,#157,.F.);
#202=ORIENTED_EDGE('',*,*,#155,.F.);
#203=ORIENTED_EDGE('',*,*,#156,.T.);
#204=ORIENTED_EDGE('',*,*,#158,.T.);
#205=ORIENTED_EDGE('',*,*,#159,.T.);
#206=ORIENTED_EDGE('',*,*,#160,.T.);
#207=ORIENTED_EDGE('',*,*,#158,.F.);
#208=ORIENTED_EDGE('',*,*,#157,.T.);
#209=ORIENTED_EDGE('',*,*,#161,.T.);
#210=ORIENTED_EDGE('',*,*,#162,.T.);
#211=ORIENTED_EDGE('',*,*,#163,.T.);
#212=ORIENTED_EDGE('',*,*,#159,.F.);
#213=ORIENTED_EDGE('',*,*,#160,.F.);
#214=ORIENTED_EDGE('',*,*,#163,.F.);
#215=ORIENTED_EDGE('',*,*,#164,.F.);
#216=ORIENTED_EDGE('',*,*,#165,.T.);
#217=ORIENTED_EDGE('',*,*,#161,.F.);
#218=ORIENTED_EDGE('',*,*,#162,.F.);
#219=ORIENTED_EDGE('',*,*,#165,.F.);
#220=ORIENTED_EDGE('',*,*,#166,.F.);
#221=ORIENTED_EDGE('',*,*,#164,.T.);
#222=ORIENTED_EDGE('',*,*,#167,.T.);
#223=ORIENTED_EDGE('',*,*,#168,.T.);
#224=ORIENTED_EDGE('',*,*,#169,.T.);
#225=ORIENTED_EDGE('',*,*,#167,.F.);
#226=ORIENTED_EDGE('',*,*,#166,.T.);
#227=ORIENTED_EDGE('',*,*,#169,.F.);
#228=ORIENTED_EDGE('',*,*,#168,.F.);
#229=ORIENTED_EDGE('',*,*,#170,.T.);
#230=ORIENTED_EDGE('',*,*,#171,.T.);
#231=ORIENTED_EDGE('',*,*,#151,.T.);
#232=ORIENTED_EDGE('',*,*,#149,.T.);
#233=ORIENTED_EDGE('',*,*,#171,.F.);
#234=ORIENTED_EDGE('',*,*,#172,.T.);
#235=ORIENTED_EDGE('',*,*,#170,.F.);
#236=ORIENTED_EDGE('',*,*,#172,.F.);
#237=ORIENTED_EDGE('',*,*,#173,.F.);
#238=ORIENTED_EDGE('',*,*,#174,.T.);
#239=ORIENTED_EDGE('',*,*,#175,.F.);
#240=ORIENTED_EDGE('',*,*,#174,.F.);
#241=ORIENTED_EDGE('',*,*,#175,.T.);
#242=ORIENTED_EDGE('',*,*,#173,.T.);
#243=ORIENTED_EDGE('',*,*,#176,.F.);
#244=ORIENTED_EDGE('',*,*,#177,.T.);
#245=ORIENTED_EDGE('',*,*,#178,.F.);
#246=ORIENTED_EDGE('',*,*,#177,.F.);
#247=ORIENTED_EDGE('',*,*,#178,.T.);
#248=ORIENTED_EDGE('',*,*,#176,.T.);
#249=TOROIDAL_SURFACE('',#344,3.7,0.7);
#250=TOROIDAL_SURFACE('',#353,4.8,0.7);
#251=TOROIDAL_SURFACE('',#360,4.8,0.7);
#252=TOROIDAL_SURFACE('',#364,3.7,0.7);
#253=TOROIDAL_SURFACE('',#371,3.7,0.7);
#254=TOROIDAL_SURFACE('',#376,3.7,0.7);
#255=ADVANCED_FACE('',(#56),#249,.T.);
#256=ADVANCED_FACE('',(#57),#51,.T.);
#257=ADVANCED_FACE('',(#58),#250,.F.);
#258=ADVANCED_FACE('',(#59),#52,.T.);
#259=ADVANCED_FACE('',(#60),#251,.F.);
#260=ADVANCED_FACE('',(#61),#252,.T.);
#261=ADVANCED_FACE('',(#62),#53,.T.);
#262=ADVANCED_FACE('',(#63),#253,.T.);
#263=ADVANCED_FACE('',(#64),#35,.F.);
#264=ADVANCED_FACE('',(#65),#254,.T.);
#265=ADVANCED_FACE('',(#66),#36,.T.);
#266=ADVANCED_FACE('',(#67),#54,.T.);
#267=ADVANCED_FACE('',(#68),#37,.F.);
#268=ADVANCED_FACE('',(#69),#38,.T.);
#269=ADVANCED_FACE('',(#70),#55,.T.);
#270=ADVANCED_FACE('',(#71),#39,.F.);
#271=ADVANCED_FACE('',(#72),#40,.T.);
#272=CLOSED_SHELL('',(#255,#256,#257,#258,#259,#260,#261,#262,#263,#264,
#265));
#273=CLOSED_SHELL('',(#266,#267,#268));
#274=CLOSED_SHELL('',(#269,#270,#271));
#275=DERIVED_UNIT_ELEMENT(#281,1.);
#276=DERIVED_UNIT_ELEMENT(#603,3.);
#277=DERIVED_UNIT_ELEMENT(#281,1.);
#278=DERIVED_UNIT_ELEMENT(#603,3.);
#279=DERIVED_UNIT_ELEMENT(#281,1.);
#280=DERIVED_UNIT_ELEMENT(#603,3.);
#281=(
MASS_UNIT()
NAMED_UNIT(*)
SI_UNIT($,.GRAM.)
);
#282=DERIVED_UNIT((#275,#276));
#283=DERIVED_UNIT((#277,#278));
#284=DERIVED_UNIT((#279,#280));
#285=MEASURE_REPRESENTATION_ITEM('density measure',
POSITIVE_RATIO_MEASURE(1.),#282);
#286=MEASURE_REPRESENTATION_ITEM('density measure',
POSITIVE_RATIO_MEASURE(1.),#283);
#287=MEASURE_REPRESENTATION_ITEM('density measure',
POSITIVE_RATIO_MEASURE(1.),#284);
#288=PROPERTY_DEFINITION_REPRESENTATION(#303,#294);
#289=PROPERTY_DEFINITION_REPRESENTATION(#304,#295);
#290=PROPERTY_DEFINITION_REPRESENTATION(#305,#296);
#291=PROPERTY_DEFINITION_REPRESENTATION(#306,#297);
#292=PROPERTY_DEFINITION_REPRESENTATION(#307,#298);
#293=PROPERTY_DEFINITION_REPRESENTATION(#308,#299);
#294=REPRESENTATION('material name',(#300),#598);
#295=REPRESENTATION('density',(#285),#598);
#296=REPRESENTATION('material name',(#301),#599);
#297=REPRESENTATION('density',(#286),#599);
#298=REPRESENTATION('material name',(#302),#600);
#299=REPRESENTATION('density',(#287),#600);
#300=DESCRIPTIVE_REPRESENTATION_ITEM('Generic','Generic');
#301=DESCRIPTIVE_REPRESENTATION_ITEM('Generic','Generic');
#302=DESCRIPTIVE_REPRESENTATION_ITEM('Generic','Generic');
#303=PROPERTY_DEFINITION('material property','material name',#623);
#304=PROPERTY_DEFINITION('material property','density of part',#623);
#305=PROPERTY_DEFINITION('material property','material name',#624);
#306=PROPERTY_DEFINITION('material property','density of part',#624);
#307=PROPERTY_DEFINITION('material property','material name',#625);
#308=PROPERTY_DEFINITION('material property','density of part',#625);
#309=PRESENTATION_STYLE_ASSIGNMENT((#310));
#310=SURFACE_STYLE_USAGE(.BOTH.,#313);
#311=SURFACE_STYLE_RENDERING_WITH_PROPERTIES($,#317,(#312));
#312=SURFACE_STYLE_TRANSPARENT(0.);
#313=SURFACE_SIDE_STYLE('',(#314,#311));
#314=SURFACE_STYLE_FILL_AREA(#315);
#315=FILL_AREA_STYLE('',(#316));
#316=FILL_AREA_STYLE_COLOUR('',#317);
#317=COLOUR_RGB('',0.749019607843137,0.749019607843137,0.749019607843137);
#318=DATE_TIME_ROLE('creation_date');
#319=DATE_TIME_ROLE('creation_date');
#320=DATE_TIME_ROLE('creation_date');
#321=DATE_TIME_ROLE('creation_date');
#322=APPLIED_DATE_AND_TIME_ASSIGNMENT(#326,#318,(#622));
#323=APPLIED_DATE_AND_TIME_ASSIGNMENT(#327,#319,(#623));
#324=APPLIED_DATE_AND_TIME_ASSIGNMENT(#328,#320,(#624));
#325=APPLIED_DATE_AND_TIME_ASSIGNMENT(#329,#321,(#625));
#326=DATE_AND_TIME(#330,#334);
#327=DATE_AND_TIME(#331,#335);
#328=DATE_AND_TIME(#332,#336);
#329=DATE_AND_TIME(#333,#337);
#330=CALENDAR_DATE(2023,1,8);
#331=CALENDAR_DATE(2023,28,7);
#332=CALENDAR_DATE(2023,1,8);
#333=CALENDAR_DATE(2023,1,8);
#334=LOCAL_TIME(13,58,35.,#338);
#335=LOCAL_TIME(17,9,4.,#339);
#336=LOCAL_TIME(12,55,23.,#340);
#337=LOCAL_TIME(12,55,23.,#341);
#338=COORDINATED_UNIVERSAL_TIME_OFFSET(0,0,.BEHIND.);
#339=COORDINATED_UNIVERSAL_TIME_OFFSET(0,0,.BEHIND.);
#340=COORDINATED_UNIVERSAL_TIME_OFFSET(0,0,.BEHIND.);
#341=COORDINATED_UNIVERSAL_TIME_OFFSET(0,0,.BEHIND.);
#342=AXIS2_PLACEMENT_3D('placement',#509,#396,#397);
#343=AXIS2_PLACEMENT_3D('placement',#510,#398,#399);
#344=AXIS2_PLACEMENT_3D('',#511,#400,#401);
#345=AXIS2_PLACEMENT_3D('',#514,#402,#403);
#346=AXIS2_PLACEMENT_3D('',#516,#404,#405);
#347=AXIS2_PLACEMENT_3D('',#518,#406,#407);
#348=AXIS2_PLACEMENT_3D('',#519,#408,#409);
#349=AXIS2_PLACEMENT_3D('',#520,#410,#411);
#350=AXIS2_PLACEMENT_3D('',#521,#412,#413);
#351=AXIS2_PLACEMENT_3D('',#524,#414,#415);
#352=AXIS2_PLACEMENT_3D('',#526,#417,#418);
#353=AXIS2_PLACEMENT_3D('',#527,#419,#420);
#354=AXIS2_PLACEMENT_3D('',#530,#421,#422);
#355=AXIS2_PLACEMENT_3D('',#531,#423,#424);
#356=AXIS2_PLACEMENT_3D('',#532,#425,#426);
#357=AXIS2_PLACEMENT_3D('',#533,#427,#428);
#358=AXIS2_PLACEMENT_3D('',#537,#430,#431);
#359=AXIS2_PLACEMENT_3D('',#538,#432,#433);
#360=AXIS2_PLACEMENT_3D('',#539,#434,#435);
#361=AXIS2_PLACEMENT_3D('',#541,#436,#437);
#362=AXIS2_PLACEMENT_3D('',#543,#438,#439);
#363=AXIS2_PLACEMENT_3D('',#544,#440,#441);
#364=AXIS2_PLACEMENT_3D('',#545,#442,#443);
#365=AXIS2_PLACEMENT_3D('',#548,#444,#445);
#366=AXIS2_PLACEMENT_3D('',#549,#446,#447);
#367=AXIS2_PLACEMENT_3D('',#550,#448,#449);
#368=AXIS2_PLACEMENT_3D('',#551,#450,#451);
#369=AXIS2_PLACEMENT_3D('',#554,#452,#453);
#370=AXIS2_PLACEMENT_3D('',#556,#455,#456);
#371=AXIS2_PLACEMENT_3D('',#557,#457,#458);
#372=AXIS2_PLACEMENT_3D('',#559,#459,#460);
#373=AXIS2_PLACEMENT_3D('',#561,#461,#462);
#374=AXIS2_PLACEMENT_3D('',#562,#463,#464);
#375=AXIS2_PLACEMENT_3D('',#563,#465,#466);
#376=AXIS2_PLACEMENT_3D('',#564,#467,#468);
#377=AXIS2_PLACEMENT_3D('',#567,#469,#470);
#378=AXIS2_PLACEMENT_3D('',#568,#471,#472);
#379=AXIS2_PLACEMENT_3D('',#569,#473,#474);
#380=AXIS2_PLACEMENT_3D('',#570,#475,#476);
#381=AXIS2_PLACEMENT_3D('placement',#571,#477,#478);
#382=AXIS2_PLACEMENT_3D('',#572,#479,#480);
#383=AXIS2_PLACEMENT_3D('',#574,#481,#482);
#384=AXIS2_PLACEMENT_3D('',#577,#484,#485);
#385=AXIS2_PLACEMENT_3D('',#578,#486,#487);
#386=AXIS2_PLACEMENT_3D('',#579,#488,#489);
#387=AXIS2_PLACEMENT_3D('placement',#580,#490,#491);
#388=AXIS2_PLACEMENT_3D('',#581,#492,#493);
#389=AXIS2_PLACEMENT_3D('',#583,#494,#495);
#390=AXIS2_PLACEMENT_3D('',#586,#497,#498);
#391=AXIS2_PLACEMENT_3D('',#587,#499,#500);
#392=AXIS2_PLACEMENT_3D('',#588,#501,#502);
#393=AXIS2_PLACEMENT_3D('',#589,#503,#504);
#394=AXIS2_PLACEMENT_3D('',#590,#505,#506);
#395=AXIS2_PLACEMENT_3D('',#591,#507,#508);
#396=DIRECTION('axis',(0.,0.,1.));
#397=DIRECTION('refdir',(1.,0.,0.));
#398=DIRECTION('axis',(0.,0.,1.));
#399=DIRECTION('refdir',(1.,0.,0.));
#400=DIRECTION('center_axis',(0.,0.,-1.));
#401=DIRECTION('ref_axis',(-1.,0.,0.));
#402=DIRECTION('center_axis',(0.,0.,1.));
#403=DIRECTION('ref_axis',(1.,-1.22464679914735E-16,0.));
#404=DIRECTION('center_axis',(-1.22464679914735E-16,-1.,0.));
#405=DIRECTION('ref_axis',(1.,-1.22464679914735E-16,0.));
#406=DIRECTION('center_axis',(0.,0.,-1.));
#407=DIRECTION('ref_axis',(1.,-1.22464679914735E-16,0.));
#408=DIRECTION('center_axis',(0.,0.,-1.));
#409=DIRECTION('ref_axis',(1.,-1.22464679914735E-16,0.));
#410=DIRECTION('center_axis',(0.,0.,1.));
#411=DIRECTION('ref_axis',(1.,-1.22464679914735E-16,0.));
#412=DIRECTION('center_axis',(0.,0.,1.));
#413=DIRECTION('ref_axis',(-1.,0.,0.));
#414=DIRECTION('center_axis',(0.,0.,1.));
#415=DIRECTION('ref_axis',(-1.,0.,0.));
#416=DIRECTION('',(0.,0.,-1.));
#417=DIRECTION('center_axis',(0.,0.,1.));
#418=DIRECTION('ref_axis',(-1.,0.,0.));
#419=DIRECTION('center_axis',(0.,0.,1.));
#420=DIRECTION('ref_axis',(1.,0.,0.));
#421=DIRECTION('center_axis',(0.,0.,1.));
#422=DIRECTION('ref_axis',(1.,0.,0.));
#423=DIRECTION('center_axis',(0.,0.,1.));
#424=DIRECTION('ref_axis',(1.,0.,0.));
#425=DIRECTION('center_axis',(1.22464679914735E-16,-1.,0.));
#426=DIRECTION('ref_axis',(-1.,-1.22464679914735E-16,0.));
#427=DIRECTION('center_axis',(0.,0.,1.));
#428=DIRECTION('ref_axis',(-1.,0.,0.));
#429=DIRECTION('',(0.,0.,-1.));
#430=DIRECTION('center_axis',(0.,0.,-1.));
#431=DIRECTION('ref_axis',(1.,-1.22464679914735E-16,0.));
#432=DIRECTION('center_axis',(0.,0.,-1.));
#433=DIRECTION('ref_axis',(1.,-1.22464679914735E-16,0.));
#434=DIRECTION('center_axis',(0.,0.,-1.));
#435=DIRECTION('ref_axis',(-1.,0.,0.));
#436=DIRECTION('center_axis',(-1.22464679914735E-16,-1.,0.));
#437=DIRECTION('ref_axis',(1.,-1.22464679914735E-16,0.));
#438=DIRECTION('center_axis',(0.,0.,1.));
#439=DIRECTION('ref_axis',(1.,-1.22464679914735E-16,0.));
#440=DIRECTION('center_axis',(0.,0.,1.));
#441=DIRECTION('ref_axis',(1.,-1.22464679914735E-16,0.));
#442=DIRECTION('center_axis',(0.,0.,-1.));
#443=DIRECTION('ref_axis',(1.,0.,0.));
#444=DIRECTION('center_axis',(0.,0.,1.));
#445=DIRECTION('ref_axis',(1.,0.,0.));
#446=DIRECTION('center_axis',(0.,0.,1.));
#447=DIRECTION('ref_axis',(1.,0.,0.));
#448=DIRECTION('center_axis',(-1.22464679914735E-16,1.,0.));
#449=DIRECTION('ref_axis',(-1.,-1.22464679914735E-16,0.));
#450=DIRECTION('center_axis',(0.,0.,1.));
#451=DIRECTION('ref_axis',(-1.,0.,0.));
#452=DIRECTION('center_axis',(0.,0.,-1.));
#453=DIRECTION('ref_axis',(-1.,0.,0.));
#454=DIRECTION('',(0.,0.,1.));
#455=DIRECTION('center_axis',(0.,0.,-1.));
#456=DIRECTION('ref_axis',(-1.,0.,0.));
#457=DIRECTION('center_axis',(0.,0.,1.));
#458=DIRECTION('ref_axis',(1.,0.,0.));
#459=DIRECTION('center_axis',(1.22464679914735E-16,-1.,0.));
#460=DIRECTION('ref_axis',(-1.,-1.22464679914735E-16,0.));
#461=DIRECTION('center_axis',(0.,0.,1.));
#462=DIRECTION('ref_axis',(-1.,0.,0.));
#463=DIRECTION('center_axis',(0.,0.,1.));
#464=DIRECTION('ref_axis',(-1.,0.,0.));
#465=DIRECTION('center_axis',(0.,0.,1.));
#466=DIRECTION('ref_axis',(1.,0.,0.));
#467=DIRECTION('center_axis',(0.,0.,1.));
#468=DIRECTION('ref_axis',(1.,0.,0.));
#469=DIRECTION('center_axis',(0.,0.,-1.));
#470=DIRECTION('ref_axis',(-1.,0.,0.));
#471=DIRECTION('center_axis',(1.22464679914735E-16,-1.,0.));
#472=DIRECTION('ref_axis',(-1.,-1.22464679914735E-16,0.));
#473=DIRECTION('center_axis',(0.,0.,-1.));
#474=DIRECTION('ref_axis',(-1.,0.,0.));
#475=DIRECTION('center_axis',(0.,0.,1.));
#476=DIRECTION('ref_axis',(1.,0.,0.));
#477=DIRECTION('axis',(0.,0.,1.));
#478=DIRECTION('refdir',(1.,0.,0.));
#479=DIRECTION('center_axis',(0.,0.,1.));
#480=DIRECTION('ref_axis',(-1.,0.,0.));
#481=DIRECTION('center_axis',(0.,0.,1.));
#482=DIRECTION('ref_axis',(-1.,0.,0.));
#483=DIRECTION('',(0.,0.,-1.));
#484=DIRECTION('center_axis',(0.,0.,-1.));
#485=DIRECTION('ref_axis',(-1.,0.,0.));
#486=DIRECTION('center_axis',(0.,0.,1.));
#487=DIRECTION('ref_axis',(1.,0.,0.));
#488=DIRECTION('center_axis',(0.,0.,1.));
#489=DIRECTION('ref_axis',(1.,0.,0.));
#490=DIRECTION('axis',(0.,0.,1.));
#491=DIRECTION('refdir',(1.,0.,0.));
#492=DIRECTION('center_axis',(0.,0.,1.));
#493=DIRECTION('ref_axis',(-1.,0.,0.));
#494=DIRECTION('center_axis',(0.,0.,1.));
#495=DIRECTION('ref_axis',(-1.,0.,0.));
#496=DIRECTION('',(0.,0.,-1.));
#497=DIRECTION('center_axis',(0.,0.,-1.));
#498=DIRECTION('ref_axis',(-1.,0.,0.));
#499=DIRECTION('center_axis',(0.,0.,1.));
#500=DIRECTION('ref_axis',(1.,0.,0.));
#501=DIRECTION('center_axis',(0.,0.,1.));
#502=DIRECTION('ref_axis',(1.,0.,0.));
#503=DIRECTION('',(0.,-1.,-2.22044604925031E-16));
#504=DIRECTION('',(1.,0.,0.));
#505=DIRECTION('',(0.,-1.,-2.22044604925031E-16));
#506=DIRECTION('',(1.,0.,0.));
#507=DIRECTION('',(0.,-1.,-2.22044604925031E-16));
#508=DIRECTION('',(1.,0.,0.));
#509=CARTESIAN_POINT('',(0.,0.,0.));
#510=CARTESIAN_POINT('',(0.,0.,0.));
#511=CARTESIAN_POINT('Origin',(0.,0.,9.39156913913063));
#512=CARTESIAN_POINT('',(-4.25,0.,8.95855643723842));
#513=CARTESIAN_POINT('',(4.25,-5.20474889637625E-16,8.95855643723842));
#514=CARTESIAN_POINT('Origin',(0.,0.,8.95855643723842));
#515=CARTESIAN_POINT('',(4.4,-5.38844591624836E-16,9.39156913913063));
#516=CARTESIAN_POINT('Origin',(3.7,-4.53119315684521E-16,9.39156913913063));
#517=CARTESIAN_POINT('',(-4.4,1.07768918324967E-15,9.39156913913063));
#518=CARTESIAN_POINT('Origin',(0.,0.,9.39156913913063));
#519=CARTESIAN_POINT('Origin',(0.,0.,9.39156913913063));
#520=CARTESIAN_POINT('Origin',(0.,0.,8.95855643723842));
#521=CARTESIAN_POINT('Origin',(0.,0.,9.1));
#522=CARTESIAN_POINT('',(4.4,5.38844591624836E-16,11.8));
#523=CARTESIAN_POINT('',(-4.4,-5.38844591624836E-16,11.8));
#524=CARTESIAN_POINT('Origin',(0.,0.,11.8));
#525=CARTESIAN_POINT('',(4.4,5.38844591624836E-16,9.1));
#526=CARTESIAN_POINT('Origin',(0.,0.,11.8));
#527=CARTESIAN_POINT('Origin',(0.,0.,8.5255437353462));
#528=CARTESIAN_POINT('',(-4.1,-5.02105187650415E-16,8.5255437353462));
#529=CARTESIAN_POINT('',(4.1,5.02105187650415E-16,8.5255437353462));
#530=CARTESIAN_POINT('Origin',(0.,0.,8.5255437353462));
#531=CARTESIAN_POINT('Origin',(0.,0.,8.5255437353462));
#532=CARTESIAN_POINT('Origin',(-4.8,-5.8783046359073E-16,8.5255437353462));
#533=CARTESIAN_POINT('Origin',(0.,0.,0.));
#534=CARTESIAN_POINT('',(4.1,5.02105187650415E-16,-8.80843086086936));
#535=CARTESIAN_POINT('',(4.1,5.02105187650415E-16,0.));
#536=CARTESIAN_POINT('',(-4.1,1.00421037530083E-15,-8.80843086086936));
#537=CARTESIAN_POINT('Origin',(0.,0.,-8.80843086086936));
#538=CARTESIAN_POINT('Origin',(0.,0.,-8.80843086086936));
#539=CARTESIAN_POINT('Origin',(0.,0.,-8.80843086086936));
#540=CARTESIAN_POINT('',(4.25,-5.20474889637625E-16,-9.24144356276159));
#541=CARTESIAN_POINT('Origin',(4.8,-5.8783046359073E-16,-8.80843086086936));
#542=CARTESIAN_POINT('',(-4.25,0.,-9.24144356276159));
#543=CARTESIAN_POINT('Origin',(0.,0.,-9.24144356276159));
#544=CARTESIAN_POINT('Origin',(0.,0.,-9.24144356276159));
#545=CARTESIAN_POINT('Origin',(0.,0.,-9.6744562646538));
#546=CARTESIAN_POINT('',(-4.4,-5.38844591624836E-16,-9.6744562646538));
#547=CARTESIAN_POINT('',(4.4,5.38844591624836E-16,-9.6744562646538));
#548=CARTESIAN_POINT('Origin',(0.,0.,-9.6744562646538));
#549=CARTESIAN_POINT('Origin',(0.,0.,-9.6744562646538));
#550=CARTESIAN_POINT('Origin',(-3.7,-4.53119315684521E-16,-9.6744562646538));
#551=CARTESIAN_POINT('Origin',(0.,0.,-9.1));
#552=CARTESIAN_POINT('',(4.4,-5.38844591624836E-16,-11.8));
#553=CARTESIAN_POINT('',(-4.4,-5.38844591624836E-16,-11.8));
#554=CARTESIAN_POINT('Origin',(0.,0.,-11.8));
#555=CARTESIAN_POINT('',(4.4,5.38844591624836E-16,-9.1));
#556=CARTESIAN_POINT('Origin',(0.,0.,-11.8));
#557=CARTESIAN_POINT('Origin',(0.,0.,-11.8));
#558=CARTESIAN_POINT('',(-3.7,-4.53119315684521E-16,-12.5));
#559=CARTESIAN_POINT('Origin',(-3.7,-4.53119315684521E-16,-11.8));
#560=CARTESIAN_POINT('',(3.7,4.53119315684521E-16,-12.5));
#561=CARTESIAN_POINT('Origin',(0.,0.,-12.5));
#562=CARTESIAN_POINT('Origin',(0.,0.,-12.5));
#563=CARTESIAN_POINT('Origin',(-4.49037159687363E-17,0.,-12.5));
#564=CARTESIAN_POINT('Origin',(0.,0.,11.8));
#565=CARTESIAN_POINT('',(3.7,-4.53119315684521E-16,12.5));
#566=CARTESIAN_POINT('',(-3.7,-4.53119315684521E-16,12.5));
#567=CARTESIAN_POINT('Origin',(0.,0.,12.5));
#568=CARTESIAN_POINT('Origin',(-3.7,-4.53119315684521E-16,11.8));
#569=CARTESIAN_POINT('Origin',(0.,0.,12.5));
#570=CARTESIAN_POINT('Origin',(-4.49037159687363E-17,0.,12.5));
#571=CARTESIAN_POINT('',(0.,0.,0.));
#572=CARTESIAN_POINT('Origin',(0.,0.,0.));
#573=CARTESIAN_POINT('',(0.4,4.89858719658941E-17,27.));
#574=CARTESIAN_POINT('Origin',(0.,0.,27.));
#575=CARTESIAN_POINT('',(0.4,4.89858719658941E-17,0.));
#576=CARTESIAN_POINT('',(0.4,4.89858719658941E-17,0.));
#577=CARTESIAN_POINT('Origin',(0.,0.,0.));
#578=CARTESIAN_POINT('Origin',(-4.08215599715784E-18,0.,0.));
#579=CARTESIAN_POINT('Origin',(-4.08215599715784E-18,0.,27.));
#580=CARTESIAN_POINT('',(0.,0.,0.));
#581=CARTESIAN_POINT('Origin',(0.,0.,0.));
#582=CARTESIAN_POINT('',(0.4,4.89858719658941E-17,43.));
#583=CARTESIAN_POINT('Origin',(0.,0.,43.));
#584=CARTESIAN_POINT('',(0.4,4.89858719658941E-17,0.));
#585=CARTESIAN_POINT('',(0.4,4.89858719658941E-17,0.));
#586=CARTESIAN_POINT('Origin',(0.,0.,0.));
#587=CARTESIAN_POINT('Origin',(-4.08215599715784E-18,0.,0.));
#588=CARTESIAN_POINT('Origin',(-4.08215599715784E-18,0.,43.));
#589=CARTESIAN_POINT('',(0.,0.,0.));
#590=CARTESIAN_POINT('',(0.,-12.5,-2.77555756156289E-15));
#591=CARTESIAN_POINT('',(0.,55.5,1.45439216225896E-14));
#592=UNCERTAINTY_MEASURE_WITH_UNIT(LENGTH_MEASURE(0.01),#602,
'DISTANCE_ACCURACY_VALUE',
'Maximum model space distance between geometric entities at asserted c
onnectivities');
#593=UNCERTAINTY_MEASURE_WITH_UNIT(LENGTH_MEASURE(0.01),#602,
'DISTANCE_ACCURACY_VALUE',
'Maximum model space distance between geometric entities at asserted c
onnectivities');
#594=UNCERTAINTY_MEASURE_WITH_UNIT(LENGTH_MEASURE(0.01),#602,
'DISTANCE_ACCURACY_VALUE',
'Maximum model space distance between geometric entities at asserted c
onnectivities');
#595=UNCERTAINTY_MEASURE_WITH_UNIT(LENGTH_MEASURE(0.01),#602,
'DISTANCE_ACCURACY_VALUE',
'Maximum model space distance between geometric entities at asserted c
onnectivities');
#596=UNCERTAINTY_MEASURE_WITH_UNIT(LENGTH_MEASURE(0.01),#602,
'DISTANCE_ACCURACY_VALUE',
'Maximum model space distance between geometric entities at asserted c
onnectivities');
#597=(
GEOMETRIC_REPRESENTATION_CONTEXT(3)
GLOBAL_UNCERTAINTY_ASSIGNED_CONTEXT((#592))
GLOBAL_UNIT_ASSIGNED_CONTEXT((#602,#604,#605))
REPRESENTATION_CONTEXT('','3D')
);
#598=(
GEOMETRIC_REPRESENTATION_CONTEXT(3)
GLOBAL_UNCERTAINTY_ASSIGNED_CONTEXT((#593))
GLOBAL_UNIT_ASSIGNED_CONTEXT((#602,#604,#605))
REPRESENTATION_CONTEXT('','3D')
);
#599=(
GEOMETRIC_REPRESENTATION_CONTEXT(3)
GLOBAL_UNCERTAINTY_ASSIGNED_CONTEXT((#594))
GLOBAL_UNIT_ASSIGNED_CONTEXT((#602,#604,#605))
REPRESENTATION_CONTEXT('','3D')
);
#600=(
GEOMETRIC_REPRESENTATION_CONTEXT(3)
GLOBAL_UNCERTAINTY_ASSIGNED_CONTEXT((#595))
GLOBAL_UNIT_ASSIGNED_CONTEXT((#602,#604,#605))
REPRESENTATION_CONTEXT('','3D')
);
#601=(
GEOMETRIC_REPRESENTATION_CONTEXT(3)
GLOBAL_UNCERTAINTY_ASSIGNED_CONTEXT((#596))
GLOBAL_UNIT_ASSIGNED_CONTEXT((#602,#604,#605))
REPRESENTATION_CONTEXT('','3D')
);
#602=(
LENGTH_UNIT()
NAMED_UNIT(*)
SI_UNIT(.MILLI.,.METRE.)
);
#603=(
LENGTH_UNIT()
NAMED_UNIT(*)
SI_UNIT(.CENTI.,.METRE.)
);
#604=(
NAMED_UNIT(*)
PLANE_ANGLE_UNIT()
SI_UNIT($,.RADIAN.)
);
#605=(
NAMED_UNIT(*)
SI_UNIT($,.STERADIAN.)
SOLID_ANGLE_UNIT()
);
#606=SHAPE_DEFINITION_REPRESENTATION(#610,#617);
#607=SHAPE_DEFINITION_REPRESENTATION(#611,#618);
#608=SHAPE_DEFINITION_REPRESENTATION(#612,#619);
#609=SHAPE_DEFINITION_REPRESENTATION(#613,#620);
#610=PRODUCT_DEFINITION_SHAPE('',$,#622);
#611=PRODUCT_DEFINITION_SHAPE('',$,#623);
#612=PRODUCT_DEFINITION_SHAPE('',$,#624);
#613=PRODUCT_DEFINITION_SHAPE('',$,#625);
#614=PRODUCT_DEFINITION_SHAPE($,$,#20);
#615=PRODUCT_DEFINITION_SHAPE($,$,#21);
#616=PRODUCT_DEFINITION_SHAPE($,$,#22);
#617=SHAPE_REPRESENTATION('',(#342,#393,#394,#395),#597);
#618=SHAPE_REPRESENTATION('',(#343),#598);
#619=SHAPE_REPRESENTATION('',(#381),#599);
#620=SHAPE_REPRESENTATION('',(#387),#600);
#621=PRODUCT_DEFINITION_CONTEXT('part definition',#635,'design');
#622=PRODUCT_DEFINITION('WHS7U-xyT07 wo tape','WHS7U-xyT07 wo tape',#626,
#621);
#623=PRODUCT_DEFINITION('WHS7 body','WHS7 body',#627,#621);
#624=PRODUCT_DEFINITION('WHS7U lead 1','WHS7U lead 1',#628,#621);
#625=PRODUCT_DEFINITION('WHS7U lead 2','WHS7U lead 2',#629,#621);
#626=PRODUCT_DEFINITION_FORMATION('',$,#637);
#627=PRODUCT_DEFINITION_FORMATION('',$,#638);
#628=PRODUCT_DEFINITION_FORMATION('',$,#639);
#629=PRODUCT_DEFINITION_FORMATION('',$,#640);
#630=PRODUCT_RELATED_PRODUCT_CATEGORY('WHS7U-xyT07 wo tape',
'WHS7U-xyT07 wo tape',(#637));
#631=PRODUCT_RELATED_PRODUCT_CATEGORY('WHS7 body','WHS7 body',(#638));
#632=PRODUCT_RELATED_PRODUCT_CATEGORY('WHS7U lead 1','WHS7U lead 1',(#639));
#633=PRODUCT_RELATED_PRODUCT_CATEGORY('WHS7U lead 2','WHS7U lead 2',(#640));
#634=APPLICATION_PROTOCOL_DEFINITION('international standard',
'automotive_design',2009,#635);
#635=APPLICATION_CONTEXT(
'Core Data for Automotive Mechanical Design Process');
#636=PRODUCT_CONTEXT('part definition',#635,'mechanical');
#637=PRODUCT('WHS7U-xyT07 wo tape','WHS7U-xyT07 wo tape',$,(#636));
#638=PRODUCT('WHS7 body','WHS7 body',$,(#636));
#639=PRODUCT('WHS7U lead 1','WHS7U lead 1',$,(#636));
#640=PRODUCT('WHS7U lead 2','WHS7U lead 2',$,(#636));
ENDSEC;
END-ISO-10303-21;
