ISO-10303-21;
HEADER;
/* Generated by software containing ST-Developer
 * from STEP Tools, Inc. (www.steptools.com) 
 */

FILE_DESCRIPTION(
/* description */ (''),
/* implementation_level */ '2;1');

FILE_NAME(
/* name */ 
'C:\\Users\\avery.harrell\\Documents\\Inventor\\Welwyn WW\\WHS3-xyA1 w
o tape.stp',
/* time_stamp */ '2023-08-01T09:07:11-04:00',
/* author */ ('avery.harrell'),
/* organization */ (''),
/* preprocessor_version */ 'ST-DEVELOPER v17.2',
/* originating_system */ 'Autodesk Inventor 2019',
/* authorisation */ '');

FILE_SCHEMA (('AUTOMOTIVE_DESIGN { 1 0 10303 214 3 1 1 }'));
ENDSEC;

DATA;
#10=MECHANICAL_DESIGN_GEOMETRIC_PRESENTATION_REPRESENTATION('',(#27,#28),
#522);
#11=ITEM_DEFINED_TRANSFORMATION($,$,#294,#338);
#12=ITEM_DEFINED_TRANSFORMATION($,$,#332,#339);
#13=ITEM_DEFINED_TRANSFORMATION($,$,#332,#340);
#14=(
REPRESENTATION_RELATIONSHIP($,$,#537,#536)
REPRESENTATION_RELATIONSHIP_WITH_TRANSFORMATION(#11)
SHAPE_REPRESENTATION_RELATIONSHIP()
);
#15=(
REPRESENTATION_RELATIONSHIP($,$,#538,#536)
REPRESENTATION_RELATIONSHIP_WITH_TRANSFORMATION(#12)
SHAPE_REPRESENTATION_RELATIONSHIP()
);
#16=(
REPRESENTATION_RELATIONSHIP($,$,#538,#536)
REPRESENTATION_RELATIONSHIP_WITH_TRANSFORMATION(#13)
SHAPE_REPRESENTATION_RELATIONSHIP()
);
#17=CONTEXT_DEPENDENT_SHAPE_REPRESENTATION(#14,#533);
#18=CONTEXT_DEPENDENT_SHAPE_REPRESENTATION(#15,#534);
#19=CONTEXT_DEPENDENT_SHAPE_REPRESENTATION(#16,#535);
#20=NEXT_ASSEMBLY_USAGE_OCCURRENCE('WHS3 body:1','WHS3 body:1',
'WHS3 body:1',#540,#541,'WHS3 body:1');
#21=NEXT_ASSEMBLY_USAGE_OCCURRENCE('WHS3 std lead:1','WHS3 std lead:1',
'WHS3 std lead:1',#540,#542,'WHS3 std lead:1');
#22=NEXT_ASSEMBLY_USAGE_OCCURRENCE('WHS3 std lead:2','WHS3 std lead:2',
'WHS3 std lead:2',#540,#542,'WHS3 std lead:2');
#23=SHAPE_REPRESENTATION_RELATIONSHIP('SRR','None',#537,#25);
#24=SHAPE_REPRESENTATION_RELATIONSHIP('SRR','None',#538,#26);
#25=ADVANCED_BREP_SHAPE_REPRESENTATION('',(#29),#520);
#26=ADVANCED_BREP_SHAPE_REPRESENTATION('',(#30),#521);
#27=STYLED_ITEM('',(#266),#29);
#28=STYLED_ITEM('',(#266),#30);
#29=MANIFOLD_SOLID_BREP('Solid1',#241);
#30=MANIFOLD_SOLID_BREP('Solid1',#242);
#31=PLANE('',#326);
#32=PLANE('',#331);
#33=PLANE('',#336);
#34=PLANE('',#337);
#35=LINE('',#457,#39);
#36=LINE('',#467,#40);
#37=LINE('',#487,#41);
#38=LINE('',#508,#42);
#39=VECTOR('',#361,2.6);
#40=VECTOR('',#374,2.25);
#41=VECTOR('',#399,2.6);
#42=VECTOR('',#428,0.4);
#43=CYLINDRICAL_SURFACE('',#301,2.6);
#44=CYLINDRICAL_SURFACE('',#308,2.25);
#45=CYLINDRICAL_SURFACE('',#319,2.6);
#46=CYLINDRICAL_SURFACE('',#333,0.4);
#47=FACE_OUTER_BOUND('',#61,.T.);
#48=FACE_OUTER_BOUND('',#62,.T.);
#49=FACE_OUTER_BOUND('',#63,.T.);
#50=FACE_OUTER_BOUND('',#64,.T.);
#51=FACE_OUTER_BOUND('',#65,.T.);
#52=FACE_OUTER_BOUND('',#66,.T.);
#53=FACE_OUTER_BOUND('',#67,.T.);
#54=FACE_OUTER_BOUND('',#68,.T.);
#55=FACE_OUTER_BOUND('',#69,.T.);
#56=FACE_OUTER_BOUND('',#70,.T.);
#57=FACE_OUTER_BOUND('',#71,.T.);
#58=FACE_OUTER_BOUND('',#72,.T.);
#59=FACE_OUTER_BOUND('',#73,.T.);
#60=FACE_OUTER_BOUND('',#74,.T.);
#61=EDGE_LOOP('',(#157,#158,#159,#160,#161,#162));
#62=EDGE_LOOP('',(#163,#164,#165,#166,#167,#168));
#63=EDGE_LOOP('',(#169,#170,#171,#172,#173,#174));
#64=EDGE_LOOP('',(#175,#176,#177,#178,#179,#180));
#65=EDGE_LOOP('',(#181,#182,#183,#184,#185,#186));
#66=EDGE_LOOP('',(#187,#188,#189,#190,#191,#192));
#67=EDGE_LOOP('',(#193,#194,#195,#196,#197,#198));
#68=EDGE_LOOP('',(#199,#200,#201,#202,#203,#204));
#69=EDGE_LOOP('',(#205,#206));
#70=EDGE_LOOP('',(#207,#208,#209,#210,#211,#212));
#71=EDGE_LOOP('',(#213,#214));
#72=EDGE_LOOP('',(#215,#216,#217,#218));
#73=EDGE_LOOP('',(#219));
#74=EDGE_LOOP('',(#220));
#75=CIRCLE('',#296,2.425);
#76=CIRCLE('',#297,0.7);
#77=CIRCLE('',#298,2.6);
#78=CIRCLE('',#299,2.6);
#79=CIRCLE('',#300,2.425);
#80=CIRCLE('',#302,2.6);
#81=CIRCLE('',#303,2.6);
#82=CIRCLE('',#305,2.25);
#83=CIRCLE('',#306,2.25);
#84=CIRCLE('',#307,0.7);
#85=CIRCLE('',#309,2.25);
#86=CIRCLE('',#310,2.25);
#87=CIRCLE('',#312,0.7);
#88=CIRCLE('',#313,2.425);
#89=CIRCLE('',#314,2.425);
#90=CIRCLE('',#316,2.6);
#91=CIRCLE('',#317,2.6);
#92=CIRCLE('',#318,0.7);
#93=CIRCLE('',#320,2.6);
#94=CIRCLE('',#321,2.6);
#95=CIRCLE('',#323,0.7);
#96=CIRCLE('',#324,1.9);
#97=CIRCLE('',#325,1.9);
#98=CIRCLE('',#328,1.9);
#99=CIRCLE('',#329,0.7);
#100=CIRCLE('',#330,1.9);
#101=CIRCLE('',#334,0.4);
#102=CIRCLE('',#335,0.4);
#103=VERTEX_POINT('',#444);
#104=VERTEX_POINT('',#445);
#105=VERTEX_POINT('',#447);
#106=VERTEX_POINT('',#449);
#107=VERTEX_POINT('',#454);
#108=VERTEX_POINT('',#455);
#109=VERTEX_POINT('',#460);
#110=VERTEX_POINT('',#461);
#111=VERTEX_POINT('',#466);
#112=VERTEX_POINT('',#468);
#113=VERTEX_POINT('',#472);
#114=VERTEX_POINT('',#474);
#115=VERTEX_POINT('',#478);
#116=VERTEX_POINT('',#479);
#117=VERTEX_POINT('',#484);
#118=VERTEX_POINT('',#485);
#119=VERTEX_POINT('',#490);
#120=VERTEX_POINT('',#492);
#121=VERTEX_POINT('',#497);
#122=VERTEX_POINT('',#498);
#123=VERTEX_POINT('',#505);
#124=VERTEX_POINT('',#507);
#125=EDGE_CURVE('',#103,#104,#75,.T.);
#126=EDGE_CURVE('',#104,#105,#76,.T.);
#127=EDGE_CURVE('',#105,#106,#77,.T.);
#128=EDGE_CURVE('',#106,#105,#78,.T.);
#129=EDGE_CURVE('',#104,#103,#79,.T.);
#130=EDGE_CURVE('',#107,#108,#80,.T.);
#131=EDGE_CURVE('',#107,#105,#35,.T.);
#132=EDGE_CURVE('',#108,#107,#81,.T.);
#133=EDGE_CURVE('',#109,#110,#82,.T.);
#134=EDGE_CURVE('',#110,#109,#83,.T.);
#135=EDGE_CURVE('',#109,#103,#84,.T.);
#136=EDGE_CURVE('',#110,#111,#36,.T.);
#137=EDGE_CURVE('',#112,#111,#85,.T.);
#138=EDGE_CURVE('',#111,#112,#86,.T.);
#139=EDGE_CURVE('',#111,#113,#87,.T.);
#140=EDGE_CURVE('',#113,#114,#88,.T.);
#141=EDGE_CURVE('',#114,#113,#89,.T.);
#142=EDGE_CURVE('',#115,#116,#90,.T.);
#143=EDGE_CURVE('',#116,#115,#91,.T.);
#144=EDGE_CURVE('',#115,#114,#92,.T.);
#145=EDGE_CURVE('',#117,#118,#93,.T.);
#146=EDGE_CURVE('',#117,#116,#37,.T.);
#147=EDGE_CURVE('',#118,#117,#94,.T.);
#148=EDGE_CURVE('',#118,#119,#95,.T.);
#149=EDGE_CURVE('',#119,#120,#96,.T.);
#150=EDGE_CURVE('',#120,#119,#97,.T.);
#151=EDGE_CURVE('',#121,#122,#98,.T.);
#152=EDGE_CURVE('',#122,#108,#99,.T.);
#153=EDGE_CURVE('',#122,#121,#100,.T.);
#154=EDGE_CURVE('',#123,#123,#101,.T.);
#155=EDGE_CURVE('',#123,#124,#38,.T.);
#156=EDGE_CURVE('',#124,#124,#102,.T.);
#157=ORIENTED_EDGE('',*,*,#125,.T.);
#158=ORIENTED_EDGE('',*,*,#126,.T.);
#159=ORIENTED_EDGE('',*,*,#127,.T.);
#160=ORIENTED_EDGE('',*,*,#128,.T.);
#161=ORIENTED_EDGE('',*,*,#126,.F.);
#162=ORIENTED_EDGE('',*,*,#129,.T.);
#163=ORIENTED_EDGE('',*,*,#130,.F.);
#164=ORIENTED_EDGE('',*,*,#131,.T.);
#165=ORIENTED_EDGE('',*,*,#128,.F.);
#166=ORIENTED_EDGE('',*,*,#127,.F.);
#167=ORIENTED_EDGE('',*,*,#131,.F.);
#168=ORIENTED_EDGE('',*,*,#132,.F.);
#169=ORIENTED_EDGE('',*,*,#133,.T.);
#170=ORIENTED_EDGE('',*,*,#134,.T.);
#171=ORIENTED_EDGE('',*,*,#135,.T.);
#172=ORIENTED_EDGE('',*,*,#129,.F.);
#173=ORIENTED_EDGE('',*,*,#125,.F.);
#174=ORIENTED_EDGE('',*,*,#135,.F.);
#175=ORIENTED_EDGE('',*,*,#133,.F.);
#176=ORIENTED_EDGE('',*,*,#134,.F.);
#177=ORIENTED_EDGE('',*,*,#136,.T.);
#178=ORIENTED_EDGE('',*,*,#137,.F.);
#179=ORIENTED_EDGE('',*,*,#138,.F.);
#180=ORIENTED_EDGE('',*,*,#136,.F.);
#181=ORIENTED_EDGE('',*,*,#137,.T.);
#182=ORIENTED_EDGE('',*,*,#139,.T.);
#183=ORIENTED_EDGE('',*,*,#140,.T.);
#184=ORIENTED_EDGE('',*,*,#141,.T.);
#185=ORIENTED_EDGE('',*,*,#139,.F.);
#186=ORIENTED_EDGE('',*,*,#138,.T.);
#187=ORIENTED_EDGE('',*,*,#142,.T.);
#188=ORIENTED_EDGE('',*,*,#143,.T.);
#189=ORIENTED_EDGE('',*,*,#144,.T.);
#190=ORIENTED_EDGE('',*,*,#140,.F.);
#191=ORIENTED_EDGE('',*,*,#141,.F.);
#192=ORIENTED_EDGE('',*,*,#144,.F.);
#193=ORIENTED_EDGE('',*,*,#145,.F.);
#194=ORIENTED_EDGE('',*,*,#146,.T.);
#195=ORIENTED_EDGE('',*,*,#142,.F.);
#196=ORIENTED_EDGE('',*,*,#143,.F.);
#197=ORIENTED_EDGE('',*,*,#146,.F.);
#198=ORIENTED_EDGE('',*,*,#147,.F.);
#199=ORIENTED_EDGE('',*,*,#145,.T.);
#200=ORIENTED_EDGE('',*,*,#148,.T.);
#201=ORIENTED_EDGE('',*,*,#149,.T.);
#202=ORIENTED_EDGE('',*,*,#150,.T.);
#203=ORIENTED_EDGE('',*,*,#148,.F.);
#204=ORIENTED_EDGE('',*,*,#147,.T.);
#205=ORIENTED_EDGE('',*,*,#150,.F.);
#206=ORIENTED_EDGE('',*,*,#149,.F.);
#207=ORIENTED_EDGE('',*,*,#151,.T.);
#208=ORIENTED_EDGE('',*,*,#152,.T.);
#209=ORIENTED_EDGE('',*,*,#132,.T.);
#210=ORIENTED_EDGE('',*,*,#130,.T.);
#211=ORIENTED_EDGE('',*,*,#152,.F.);
#212=ORIENTED_EDGE('',*,*,#153,.T.);
#213=ORIENTED_EDGE('',*,*,#151,.F.);
#214=ORIENTED_EDGE('',*,*,#153,.F.);
#215=ORIENTED_EDGE('',*,*,#154,.F.);
#216=ORIENTED_EDGE('',*,*,#155,.T.);
#217=ORIENTED_EDGE('',*,*,#156,.F.);
#218=ORIENTED_EDGE('',*,*,#155,.F.);
#219=ORIENTED_EDGE('',*,*,#156,.T.);
#220=ORIENTED_EDGE('',*,*,#154,.T.);
#221=TOROIDAL_SURFACE('',#295,1.9,0.7);
#222=TOROIDAL_SURFACE('',#304,2.95,0.7);
#223=TOROIDAL_SURFACE('',#311,2.95,0.7);
#224=TOROIDAL_SURFACE('',#315,1.9,0.7);
#225=TOROIDAL_SURFACE('',#322,1.9,0.7);
#226=TOROIDAL_SURFACE('',#327,1.9,0.7);
#227=ADVANCED_FACE('',(#47),#221,.T.);
#228=ADVANCED_FACE('',(#48),#43,.T.);
#229=ADVANCED_FACE('',(#49),#222,.F.);
#230=ADVANCED_FACE('',(#50),#44,.T.);
#231=ADVANCED_FACE('',(#51),#223,.F.);
#232=ADVANCED_FACE('',(#52),#224,.T.);
#233=ADVANCED_FACE('',(#53),#45,.T.);
#234=ADVANCED_FACE('',(#54),#225,.T.);
#235=ADVANCED_FACE('',(#55),#31,.F.);
#236=ADVANCED_FACE('',(#56),#226,.T.);
#237=ADVANCED_FACE('',(#57),#32,.T.);
#238=ADVANCED_FACE('',(#58),#46,.T.);
#239=ADVANCED_FACE('',(#59),#33,.F.);
#240=ADVANCED_FACE('',(#60),#34,.T.);
#241=CLOSED_SHELL('',(#227,#228,#229,#230,#231,#232,#233,#234,#235,#236,
#237));
#242=CLOSED_SHELL('',(#238,#239,#240));
#243=DERIVED_UNIT_ELEMENT(#247,1.);
#244=DERIVED_UNIT_ELEMENT(#524,3.);
#245=DERIVED_UNIT_ELEMENT(#247,1.);
#246=DERIVED_UNIT_ELEMENT(#524,3.);
#247=(
MASS_UNIT()
NAMED_UNIT(*)
SI_UNIT($,.GRAM.)
);
#248=DERIVED_UNIT((#243,#244));
#249=DERIVED_UNIT((#245,#246));
#250=MEASURE_REPRESENTATION_ITEM('density measure',
POSITIVE_RATIO_MEASURE(1.),#248);
#251=MEASURE_REPRESENTATION_ITEM('density measure',
POSITIVE_RATIO_MEASURE(1.),#249);
#252=PROPERTY_DEFINITION_REPRESENTATION(#262,#256);
#253=PROPERTY_DEFINITION_REPRESENTATION(#263,#257);
#254=PROPERTY_DEFINITION_REPRESENTATION(#264,#258);
#255=PROPERTY_DEFINITION_REPRESENTATION(#265,#259);
#256=REPRESENTATION('material name',(#260),#520);
#257=REPRESENTATION('density',(#250),#520);
#258=REPRESENTATION('material name',(#261),#521);
#259=REPRESENTATION('density',(#251),#521);
#260=DESCRIPTIVE_REPRESENTATION_ITEM('Generic','Generic');
#261=DESCRIPTIVE_REPRESENTATION_ITEM('Generic','Generic');
#262=PROPERTY_DEFINITION('material property','material name',#541);
#263=PROPERTY_DEFINITION('material property','density of part',#541);
#264=PROPERTY_DEFINITION('material property','material name',#542);
#265=PROPERTY_DEFINITION('material property','density of part',#542);
#266=PRESENTATION_STYLE_ASSIGNMENT((#267));
#267=SURFACE_STYLE_USAGE(.BOTH.,#270);
#268=SURFACE_STYLE_RENDERING_WITH_PROPERTIES($,#274,(#269));
#269=SURFACE_STYLE_TRANSPARENT(0.);
#270=SURFACE_SIDE_STYLE('',(#271,#268));
#271=SURFACE_STYLE_FILL_AREA(#272);
#272=FILL_AREA_STYLE('',(#273));
#273=FILL_AREA_STYLE_COLOUR('',#274);
#274=COLOUR_RGB('',0.749019607843137,0.749019607843137,0.749019607843137);
#275=DATE_TIME_ROLE('creation_date');
#276=DATE_TIME_ROLE('creation_date');
#277=DATE_TIME_ROLE('creation_date');
#278=APPLIED_DATE_AND_TIME_ASSIGNMENT(#281,#275,(#540));
#279=APPLIED_DATE_AND_TIME_ASSIGNMENT(#282,#276,(#541));
#280=APPLIED_DATE_AND_TIME_ASSIGNMENT(#283,#277,(#542));
#281=DATE_AND_TIME(#284,#287);
#282=DATE_AND_TIME(#285,#288);
#283=DATE_AND_TIME(#286,#289);
#284=CALENDAR_DATE(2023,1,8);
#285=CALENDAR_DATE(2023,28,7);
#286=CALENDAR_DATE(2023,1,8);
#287=LOCAL_TIME(12,59,33.,#290);
#288=LOCAL_TIME(17,9,4.,#291);
#289=LOCAL_TIME(12,55,23.,#292);
#290=COORDINATED_UNIVERSAL_TIME_OFFSET(0,0,.BEHIND.);
#291=COORDINATED_UNIVERSAL_TIME_OFFSET(0,0,.BEHIND.);
#292=COORDINATED_UNIVERSAL_TIME_OFFSET(0,0,.BEHIND.);
#293=AXIS2_PLACEMENT_3D('placement',#441,#341,#342);
#294=AXIS2_PLACEMENT_3D('placement',#442,#343,#344);
#295=AXIS2_PLACEMENT_3D('',#443,#345,#346);
#296=AXIS2_PLACEMENT_3D('',#446,#347,#348);
#297=AXIS2_PLACEMENT_3D('',#448,#349,#350);
#298=AXIS2_PLACEMENT_3D('',#450,#351,#352);
#299=AXIS2_PLACEMENT_3D('',#451,#353,#354);
#300=AXIS2_PLACEMENT_3D('',#452,#355,#356);
#301=AXIS2_PLACEMENT_3D('',#453,#357,#358);
#302=AXIS2_PLACEMENT_3D('',#456,#359,#360);
#303=AXIS2_PLACEMENT_3D('',#458,#362,#363);
#304=AXIS2_PLACEMENT_3D('',#459,#364,#365);
#305=AXIS2_PLACEMENT_3D('',#462,#366,#367);
#306=AXIS2_PLACEMENT_3D('',#463,#368,#369);
#307=AXIS2_PLACEMENT_3D('',#464,#370,#371);
#308=AXIS2_PLACEMENT_3D('',#465,#372,#373);
#309=AXIS2_PLACEMENT_3D('',#469,#375,#376);
#310=AXIS2_PLACEMENT_3D('',#470,#377,#378);
#311=AXIS2_PLACEMENT_3D('',#471,#379,#380);
#312=AXIS2_PLACEMENT_3D('',#473,#381,#382);
#313=AXIS2_PLACEMENT_3D('',#475,#383,#384);
#314=AXIS2_PLACEMENT_3D('',#476,#385,#386);
#315=AXIS2_PLACEMENT_3D('',#477,#387,#388);
#316=AXIS2_PLACEMENT_3D('',#480,#389,#390);
#317=AXIS2_PLACEMENT_3D('',#481,#391,#392);
#318=AXIS2_PLACEMENT_3D('',#482,#393,#394);
#319=AXIS2_PLACEMENT_3D('',#483,#395,#396);
#320=AXIS2_PLACEMENT_3D('',#486,#397,#398);
#321=AXIS2_PLACEMENT_3D('',#488,#400,#401);
#322=AXIS2_PLACEMENT_3D('',#489,#402,#403);
#323=AXIS2_PLACEMENT_3D('',#491,#404,#405);
#324=AXIS2_PLACEMENT_3D('',#493,#406,#407);
#325=AXIS2_PLACEMENT_3D('',#494,#408,#409);
#326=AXIS2_PLACEMENT_3D('',#495,#410,#411);
#327=AXIS2_PLACEMENT_3D('',#496,#412,#413);
#328=AXIS2_PLACEMENT_3D('',#499,#414,#415);
#329=AXIS2_PLACEMENT_3D('',#500,#416,#417);
#330=AXIS2_PLACEMENT_3D('',#501,#418,#419);
#331=AXIS2_PLACEMENT_3D('',#502,#420,#421);
#332=AXIS2_PLACEMENT_3D('placement',#503,#422,#423);
#333=AXIS2_PLACEMENT_3D('',#504,#424,#425);
#334=AXIS2_PLACEMENT_3D('',#506,#426,#427);
#335=AXIS2_PLACEMENT_3D('',#509,#429,#430);
#336=AXIS2_PLACEMENT_3D('',#510,#431,#432);
#337=AXIS2_PLACEMENT_3D('',#511,#433,#434);
#338=AXIS2_PLACEMENT_3D('',#512,#435,#436);
#339=AXIS2_PLACEMENT_3D('',#513,#437,#438);
#340=AXIS2_PLACEMENT_3D('',#514,#439,#440);
#341=DIRECTION('axis',(0.,0.,1.));
#342=DIRECTION('refdir',(1.,0.,0.));
#343=DIRECTION('axis',(0.,0.,1.));
#344=DIRECTION('refdir',(1.,0.,0.));
#345=DIRECTION('center_axis',(0.,0.,-1.));
#346=DIRECTION('ref_axis',(-1.,0.,0.));
#347=DIRECTION('center_axis',(0.,0.,1.));
#348=DIRECTION('ref_axis',(1.,-1.22464679914735E-16,0.));
#349=DIRECTION('center_axis',(-1.22464679914735E-16,-1.,0.));
#350=DIRECTION('ref_axis',(1.,-1.22464679914735E-16,0.));
#351=DIRECTION('center_axis',(0.,0.,-1.));
#352=DIRECTION('ref_axis',(1.,-1.22464679914735E-16,0.));
#353=DIRECTION('center_axis',(0.,0.,-1.));
#354=DIRECTION('ref_axis',(1.,-1.22464679914735E-16,0.));
#355=DIRECTION('center_axis',(0.,0.,1.));
#356=DIRECTION('ref_axis',(1.,-1.22464679914735E-16,0.));
#357=DIRECTION('center_axis',(0.,0.,1.));
#358=DIRECTION('ref_axis',(-1.,0.,0.));
#359=DIRECTION('center_axis',(0.,0.,1.));
#360=DIRECTION('ref_axis',(-1.,0.,0.));
#361=DIRECTION('',(0.,0.,-1.));
#362=DIRECTION('center_axis',(0.,0.,1.));
#363=DIRECTION('ref_axis',(-1.,0.,0.));
#364=DIRECTION('center_axis',(0.,0.,1.));
#365=DIRECTION('ref_axis',(1.,0.,0.));
#366=DIRECTION('center_axis',(0.,0.,1.));
#367=DIRECTION('ref_axis',(1.,0.,0.));
#368=DIRECTION('center_axis',(0.,0.,1.));
#369=DIRECTION('ref_axis',(1.,0.,0.));
#370=DIRECTION('center_axis',(1.22464679914735E-16,-1.,0.));
#371=DIRECTION('ref_axis',(-1.,-1.22464679914735E-16,0.));
#372=DIRECTION('center_axis',(0.,0.,1.));
#373=DIRECTION('ref_axis',(-1.,0.,0.));
#374=DIRECTION('',(0.,0.,-1.));
#375=DIRECTION('center_axis',(0.,0.,-1.));
#376=DIRECTION('ref_axis',(1.,-1.22464679914735E-16,0.));
#377=DIRECTION('center_axis',(0.,0.,-1.));
#378=DIRECTION('ref_axis',(1.,-1.22464679914735E-16,0.));
#379=DIRECTION('center_axis',(0.,0.,-1.));
#380=DIRECTION('ref_axis',(-1.,0.,0.));
#381=DIRECTION('center_axis',(-1.22464679914735E-16,-1.,0.));
#382=DIRECTION('ref_axis',(1.,-1.22464679914735E-16,0.));
#383=DIRECTION('center_axis',(0.,0.,1.));
#384=DIRECTION('ref_axis',(1.,-1.22464679914735E-16,0.));
#385=DIRECTION('center_axis',(0.,0.,1.));
#386=DIRECTION('ref_axis',(1.,-1.22464679914735E-16,0.));
#387=DIRECTION('center_axis',(0.,0.,-1.));
#388=DIRECTION('ref_axis',(1.,0.,0.));
#389=DIRECTION('center_axis',(0.,0.,1.));
#390=DIRECTION('ref_axis',(1.,0.,0.));
#391=DIRECTION('center_axis',(0.,0.,1.));
#392=DIRECTION('ref_axis',(1.,0.,0.));
#393=DIRECTION('center_axis',(-1.22464679914735E-16,1.,0.));
#394=DIRECTION('ref_axis',(-1.,-1.22464679914735E-16,0.));
#395=DIRECTION('center_axis',(0.,0.,1.));
#396=DIRECTION('ref_axis',(-1.,0.,0.));
#397=DIRECTION('center_axis',(0.,0.,-1.));
#398=DIRECTION('ref_axis',(-1.,0.,0.));
#399=DIRECTION('',(0.,0.,1.));
#400=DIRECTION('center_axis',(0.,0.,-1.));
#401=DIRECTION('ref_axis',(-1.,0.,0.));
#402=DIRECTION('center_axis',(0.,0.,1.));
#403=DIRECTION('ref_axis',(1.,0.,0.));
#404=DIRECTION('center_axis',(1.22464679914735E-16,-1.,0.));
#405=DIRECTION('ref_axis',(-1.,-1.22464679914735E-16,0.));
#406=DIRECTION('center_axis',(0.,0.,1.));
#407=DIRECTION('ref_axis',(-1.,0.,0.));
#408=DIRECTION('center_axis',(0.,0.,1.));
#409=DIRECTION('ref_axis',(-1.,0.,0.));
#410=DIRECTION('center_axis',(0.,0.,1.));
#411=DIRECTION('ref_axis',(1.,0.,0.));
#412=DIRECTION('center_axis',(0.,0.,1.));
#413=DIRECTION('ref_axis',(1.,0.,0.));
#414=DIRECTION('center_axis',(0.,0.,-1.));
#415=DIRECTION('ref_axis',(-1.,0.,0.));
#416=DIRECTION('center_axis',(1.22464679914735E-16,-1.,0.));
#417=DIRECTION('ref_axis',(-1.,-1.22464679914735E-16,0.));
#418=DIRECTION('center_axis',(0.,0.,-1.));
#419=DIRECTION('ref_axis',(-1.,0.,0.));
#420=DIRECTION('center_axis',(0.,0.,1.));
#421=DIRECTION('ref_axis',(1.,0.,0.));
#422=DIRECTION('axis',(0.,0.,1.));
#423=DIRECTION('refdir',(1.,0.,0.));
#424=DIRECTION('center_axis',(0.,0.,1.));
#425=DIRECTION('ref_axis',(-1.,0.,0.));
#426=DIRECTION('center_axis',(0.,0.,1.));
#427=DIRECTION('ref_axis',(-1.,0.,0.));
#428=DIRECTION('',(0.,0.,-1.));
#429=DIRECTION('center_axis',(0.,0.,-1.));
#430=DIRECTION('ref_axis',(-1.,0.,0.));
#431=DIRECTION('center_axis',(0.,0.,1.));
#432=DIRECTION('ref_axis',(1.,0.,0.));
#433=DIRECTION('center_axis',(0.,0.,1.));
#434=DIRECTION('ref_axis',(1.,0.,0.));
#435=DIRECTION('',(0.,-1.,-2.22044604925031E-16));
#436=DIRECTION('',(1.,0.,0.));
#437=DIRECTION('',(0.,-1.,-2.22044604925031E-16));
#438=DIRECTION('',(1.,0.,0.));
#439=DIRECTION('',(0.,-1.,-2.22044604925031E-16));
#440=DIRECTION('',(1.,0.,0.));
#441=CARTESIAN_POINT('',(0.,0.,0.));
#442=CARTESIAN_POINT('',(0.,0.,0.));
#443=CARTESIAN_POINT('Origin',(0.,0.,4.1697951762235));
#444=CARTESIAN_POINT('',(-2.425,0.,3.7067886967872));
#445=CARTESIAN_POINT('',(2.425,-2.96976848793233E-16,3.7067886967872));
#446=CARTESIAN_POINT('Origin',(0.,0.,3.7067886967872));
#447=CARTESIAN_POINT('',(2.6,-3.18408167778312E-16,4.1697951762235));
#448=CARTESIAN_POINT('Origin',(1.9,-2.32682891837997E-16,4.1697951762235));
#449=CARTESIAN_POINT('',(-2.6,6.36816335556624E-16,4.1697951762235));
#450=CARTESIAN_POINT('Origin',(0.,0.,4.1697951762235));
#451=CARTESIAN_POINT('Origin',(0.,0.,4.1697951762235));
#452=CARTESIAN_POINT('Origin',(0.,0.,3.7067886967872));
#453=CARTESIAN_POINT('Origin',(0.,0.,3.85));
#454=CARTESIAN_POINT('',(2.6,3.18408167778312E-16,6.55));
#455=CARTESIAN_POINT('',(-2.6,-3.18408167778312E-16,6.55));
#456=CARTESIAN_POINT('Origin',(0.,0.,6.55));
#457=CARTESIAN_POINT('',(2.6,3.18408167778312E-16,3.85));
#458=CARTESIAN_POINT('Origin',(0.,0.,6.55));
#459=CARTESIAN_POINT('Origin',(0.,0.,3.24378221735089));
#460=CARTESIAN_POINT('',(-2.25,-2.75545529808154E-16,3.24378221735089));
#461=CARTESIAN_POINT('',(2.25,2.75545529808154E-16,3.24378221735089));
#462=CARTESIAN_POINT('Origin',(0.,0.,3.24378221735089));
#463=CARTESIAN_POINT('Origin',(0.,0.,3.24378221735089));
#464=CARTESIAN_POINT('Origin',(-2.95,-3.61270805748469E-16,3.24378221735089));
#465=CARTESIAN_POINT('Origin',(0.,0.,0.));
#466=CARTESIAN_POINT('',(2.25,2.75545529808154E-16,-3.5302048237765));
#467=CARTESIAN_POINT('',(2.25,2.75545529808154E-16,0.));
#468=CARTESIAN_POINT('',(-2.25,5.51091059616309E-16,-3.5302048237765));
#469=CARTESIAN_POINT('Origin',(0.,0.,-3.5302048237765));
#470=CARTESIAN_POINT('Origin',(0.,0.,-3.5302048237765));
#471=CARTESIAN_POINT('Origin',(0.,0.,-3.5302048237765));
#472=CARTESIAN_POINT('',(2.425,-2.96976848793233E-16,-3.9932113032128));
#473=CARTESIAN_POINT('Origin',(2.95,-3.61270805748469E-16,-3.5302048237765));
#474=CARTESIAN_POINT('',(-2.425,0.,-3.9932113032128));
#475=CARTESIAN_POINT('Origin',(0.,0.,-3.9932113032128));
#476=CARTESIAN_POINT('Origin',(0.,0.,-3.9932113032128));
#477=CARTESIAN_POINT('Origin',(0.,0.,-4.45621778264911));
#478=CARTESIAN_POINT('',(-2.6,-3.18408167778312E-16,-4.45621778264911));
#479=CARTESIAN_POINT('',(2.6,3.18408167778312E-16,-4.45621778264911));
#480=CARTESIAN_POINT('Origin',(0.,0.,-4.45621778264911));
#481=CARTESIAN_POINT('Origin',(0.,0.,-4.45621778264911));
#482=CARTESIAN_POINT('Origin',(-1.9,-2.32682891837997E-16,-4.45621778264911));
#483=CARTESIAN_POINT('Origin',(0.,0.,-3.85));
#484=CARTESIAN_POINT('',(2.6,-3.18408167778312E-16,-6.55));
#485=CARTESIAN_POINT('',(-2.6,-3.18408167778312E-16,-6.55));
#486=CARTESIAN_POINT('Origin',(0.,0.,-6.55));
#487=CARTESIAN_POINT('',(2.6,3.18408167778312E-16,-3.85));
#488=CARTESIAN_POINT('Origin',(0.,0.,-6.55));
#489=CARTESIAN_POINT('Origin',(0.,0.,-6.55));
#490=CARTESIAN_POINT('',(-1.9,-2.32682891837997E-16,-7.25));
#491=CARTESIAN_POINT('Origin',(-1.9,-2.32682891837997E-16,-6.55));
#492=CARTESIAN_POINT('',(1.9,2.32682891837997E-16,-7.25));
#493=CARTESIAN_POINT('Origin',(0.,0.,-7.25));
#494=CARTESIAN_POINT('Origin',(0.,0.,-7.25));
#495=CARTESIAN_POINT('Origin',(-1.15494192236747E-16,0.,-7.25));
#496=CARTESIAN_POINT('Origin',(0.,0.,6.55));
#497=CARTESIAN_POINT('',(1.9,-2.32682891837997E-16,7.25));
#498=CARTESIAN_POINT('',(-1.9,-2.32682891837997E-16,7.25));
#499=CARTESIAN_POINT('Origin',(0.,0.,7.25));
#500=CARTESIAN_POINT('Origin',(-1.9,-2.32682891837997E-16,6.55));
#501=CARTESIAN_POINT('Origin',(0.,0.,7.25));
#502=CARTESIAN_POINT('Origin',(-1.15494192236747E-16,0.,7.25));
#503=CARTESIAN_POINT('',(0.,0.,0.));
#504=CARTESIAN_POINT('Origin',(0.,0.,0.));
#505=CARTESIAN_POINT('',(0.4,4.89858719658941E-17,24.55));
#506=CARTESIAN_POINT('Origin',(0.,0.,24.55));
#507=CARTESIAN_POINT('',(0.4,4.89858719658941E-17,0.));
#508=CARTESIAN_POINT('',(0.4,4.89858719658941E-17,0.));
#509=CARTESIAN_POINT('Origin',(0.,0.,0.));
#510=CARTESIAN_POINT('Origin',(-4.08215599715784E-18,0.,0.));
#511=CARTESIAN_POINT('Origin',(-4.08215599715784E-18,0.,24.55));
#512=CARTESIAN_POINT('',(0.,0.,0.));
#513=CARTESIAN_POINT('',(0.,-7.25,-1.88737914186277E-15));
#514=CARTESIAN_POINT('',(0.,31.8,4.84057238736568E-15));
#515=UNCERTAINTY_MEASURE_WITH_UNIT(LENGTH_MEASURE(0.01),#523,
'DISTANCE_ACCURACY_VALUE',
'Maximum model space distance between geometric entities at asserted c
onnectivities');
#516=UNCERTAINTY_MEASURE_WITH_UNIT(LENGTH_MEASURE(0.01),#523,
'DISTANCE_ACCURACY_VALUE',
'Maximum model space distance between geometric entities at asserted c
onnectivities');
#517=UNCERTAINTY_MEASURE_WITH_UNIT(LENGTH_MEASURE(0.01),#523,
'DISTANCE_ACCURACY_VALUE',
'Maximum model space distance between geometric entities at asserted c
onnectivities');
#518=UNCERTAINTY_MEASURE_WITH_UNIT(LENGTH_MEASURE(0.01),#523,
'DISTANCE_ACCURACY_VALUE',
'Maximum model space distance between geometric entities at asserted c
onnectivities');
#519=(
GEOMETRIC_REPRESENTATION_CONTEXT(3)
GLOBAL_UNCERTAINTY_ASSIGNED_CONTEXT((#515))
GLOBAL_UNIT_ASSIGNED_CONTEXT((#523,#525,#526))
REPRESENTATION_CONTEXT('','3D')
);
#520=(
GEOMETRIC_REPRESENTATION_CONTEXT(3)
GLOBAL_UNCERTAINTY_ASSIGNED_CONTEXT((#516))
GLOBAL_UNIT_ASSIGNED_CONTEXT((#523,#525,#526))
REPRESENTATION_CONTEXT('','3D')
);
#521=(
GEOMETRIC_REPRESENTATION_CONTEXT(3)
GLOBAL_UNCERTAINTY_ASSIGNED_CONTEXT((#517))
GLOBAL_UNIT_ASSIGNED_CONTEXT((#523,#525,#526))
REPRESENTATION_CONTEXT('','3D')
);
#522=(
GEOMETRIC_REPRESENTATION_CONTEXT(3)
GLOBAL_UNCERTAINTY_ASSIGNED_CONTEXT((#518))
GLOBAL_UNIT_ASSIGNED_CONTEXT((#523,#525,#526))
REPRESENTATION_CONTEXT('','3D')
);
#523=(
LENGTH_UNIT()
NAMED_UNIT(*)
SI_UNIT(.MILLI.,.METRE.)
);
#524=(
LENGTH_UNIT()
NAMED_UNIT(*)
SI_UNIT(.CENTI.,.METRE.)
);
#525=(
NAMED_UNIT(*)
PLANE_ANGLE_UNIT()
SI_UNIT($,.RADIAN.)
);
#526=(
NAMED_UNIT(*)
SI_UNIT($,.STERADIAN.)
SOLID_ANGLE_UNIT()
);
#527=SHAPE_DEFINITION_REPRESENTATION(#530,#536);
#528=SHAPE_DEFINITION_REPRESENTATION(#531,#537);
#529=SHAPE_DEFINITION_REPRESENTATION(#532,#538);
#530=PRODUCT_DEFINITION_SHAPE('',$,#540);
#531=PRODUCT_DEFINITION_SHAPE('',$,#541);
#532=PRODUCT_DEFINITION_SHAPE('',$,#542);
#533=PRODUCT_DEFINITION_SHAPE($,$,#20);
#534=PRODUCT_DEFINITION_SHAPE($,$,#21);
#535=PRODUCT_DEFINITION_SHAPE($,$,#22);
#536=SHAPE_REPRESENTATION('',(#293,#338,#339,#340),#519);
#537=SHAPE_REPRESENTATION('',(#294),#520);
#538=SHAPE_REPRESENTATION('',(#332),#521);
#539=PRODUCT_DEFINITION_CONTEXT('part definition',#550,'design');
#540=PRODUCT_DEFINITION('WHS3-xyA1 wo tape','WHS3-xyA1 wo tape',#543,#539);
#541=PRODUCT_DEFINITION('WHS3 body','WHS3 body',#544,#539);
#542=PRODUCT_DEFINITION('WHS3 std lead','WHS3 std lead',#545,#539);
#543=PRODUCT_DEFINITION_FORMATION('',$,#552);
#544=PRODUCT_DEFINITION_FORMATION('',$,#553);
#545=PRODUCT_DEFINITION_FORMATION('',$,#554);
#546=PRODUCT_RELATED_PRODUCT_CATEGORY('WHS3-xyA1 wo tape',
'WHS3-xyA1 wo tape',(#552));
#547=PRODUCT_RELATED_PRODUCT_CATEGORY('WHS3 body','WHS3 body',(#553));
#548=PRODUCT_RELATED_PRODUCT_CATEGORY('WHS3 std lead','WHS3 std lead',(#554));
#549=APPLICATION_PROTOCOL_DEFINITION('international standard',
'automotive_design',2009,#550);
#550=APPLICATION_CONTEXT(
'Core Data for Automotive Mechanical Design Process');
#551=PRODUCT_CONTEXT('part definition',#550,'mechanical');
#552=PRODUCT('WHS3-xyA1 wo tape','WHS3-xyA1 wo tape',$,(#551));
#553=PRODUCT('WHS3 body','WHS3 body',$,(#551));
#554=PRODUCT('WHS3 std lead','WHS3 std lead',$,(#551));
ENDSEC;
END-ISO-10303-21;
